Song name
# A B C D E F G H I J K L M N O P Q R S T U V W X Y Z

Ivy - Worry About You tab

Basicly i took some of the other work which im sorry for but it is correct but i'll add on to it .

Song:Worry about you.
standard tuning.
 This song is one great of Ivy and is the theme of Kingdom hospital and old scifi series 
may be out but the songs got a great tone. enjoy! :]

Finger Picking.- Intro (used acoustic, but you can use a Strat or telecaster. w/e)

e|------------------|
b|------------------|
d|-----8-------7----|
g|---6--------------|

a|-8---------8------|
e|---------6--------|

Bye bye baby.

e|------------------|
b|------------------|
d|-----8-------7----|
g|---6--------------|
a|-8---------8------|
e|---------6--------|

Don't be long.

e|------------------|
b|------------------|
d|-----8-------7----|
g|---6--------------|
a|-8---------8------|
e|---------6--------|

I'll worry about you while you're gone.

e|------------------|
b|------------------|
d|-----8-------7----|
g|---6--------------|
a|-8---------8------|
e|---------6--------|

Bye bye baby.

e|------------------|
b|------------------|
d|-----8-------7----|
g|---6--------------|
a|-8---------8------|
e|---------6--------|

Don't be long.

e|------------------|
b|------------------|
d|-----8-------7----|
g|---6--------------|
a|-8---------8------|
e|---------6--------|

I'll worry about you while you're gone.
-------------------------------------------------------
Here comes a key change.

e|------------------|
b|------------------|
d|-----6-------5----|
g|---4--------------|
a|-6---------6------|
e|---------4--------|

I'll think of you in my dreams.

e|------------------|
b|------------------|
d|-----6-------5----|
g|---4--------------|
a|-6---------6------|
e|---------4--------|

You'll never know just what you mean to me

e|------------------|
b|------------------|
d|-----6-------5----|
g|---4--------------|
a|-6---------6------|
e|---------4--------|

to me.
--------------------------------------------------------------------
Than comes the chorus: Guitar 2


(Hmmm, ba, ba-da
Hmmm, ba, ba, ba-da)

you don't
need to finger pick this part.

e|--------------------------------------------|
b|--------------------------------------------|
d|----8---------------------------------------|
g|-10---10----------10---------------------10-|
a|---------------13--------10-11--------13----|
e|---------11-10--------11--------11-10-------|
            Hmmm, ba, ba-da                         Play- 4x

e|--------------------------------------------|
b|--------------------------------------------|
d|----8---------------------------------------|
g|-10---10----------10---------------------10-|
a|---------------13--------10-11--------13----|
e|---------11-10--------11--------11-10-------|
            Hmmm, ba, ba, ba-da

-------------------------------------------------------Verse 2--|
e|--------------------------------------------------------------|
b|--------------------------------------------------------------|
d|-----8-------7------------------------------------------------|
g|---6----------------------------------------------------------|
a|-8---------8--------------------------------------------------|
e|---------6----------------------------------------------------|

Bye bye baby.

e|------------------|
b|------------------|
d|-----8-------7----|
g|---6--------------|
a|-8---------8------|
e|---------6--------|

Don't be long.

e|------------------|
b|------------------|
d|-----8-------7----|
g|---6--------------|
a|-8---------8------|
e|---------6--------|

I'll worry about you while you're gone.

e|------------------|
b|------------------|
d|-----8-------7----|
g|---6--------------|
a|-8---------8------|
e|---------6--------|

Bye bye baby.

e|------------------|
b|------------------|
d|-----8-------7----|
g|---6--------------|
a|-8---------8------|
e|---------6--------|

Don't be long.

e|------------------|
b|------------------|
d|-----8-------7----|
g|---6--------------|
a|-8---------8------|
e|---------6--------|

I'll worry about you while you're gone
--------------------------------------------------------- 2 key change


e|------------------|
b|------------------|
d|-----6-------5----|
g|---4--------------|
a|-6---------6------|
e|---------4--------|

I'll think of you night and day.

e|------------------|
b|------------------|
d|-----6-------5----|
g|---4--------------|
a|-6---------6------|
e|---------4--------|

I'll never know just what you meant to say,

e|------------------|
b|------------------|
d|-----6-------5----|
g|---4--------------|
a|-6---------6------|
e|---------4--------|
  To say...
-------------------------------------------------Than to the chorus.-
  Guitar 2
e|--------------------------------------------|
b|--------------------------------------------|
d|----8---------------------------------------|
g|-10---10----------10---------------------10-|
a|---------------13--------10-11--------13----|
e|---------11-10--------11--------11-10-------|
            Hmmm, ba, ba-da

e|--------------------------------------------|
b|--------------------------------------------|
d|----8---------------------------------------|
g|-10---10----------10---------------------10-|
a|---------------13--------10-11--------13----|
e|---------11-10--------11--------11-10-------|
            Hmmm, ba, ba, ba-da

 Play this too the end. :]
------------------------------------------------------------
Bye bye baby.
Don't be long.
I'll worry about you while you're gone.
Bye bye baby.
Don't be long.
I'll worry about you while you're gone.

I'll think of you in my dreams.
You'll never know just what you mean to me
to me.


Bye bye baby.
Don't be long.
I'll worry about you while you're gone.
Bye bye baby.
Don't be long.
I'll worry about you while you're gone.

I'll think of you night and day.
I'll never know just what you meant to say, to say.
-------------------------------------------------------
b- bend ups
p- pull offs
<> volume diming
/\- slidee ups
~ - wammy barre
Tap to rate this tab
# A B C D E F G H I J K L M N O P Q R S T U V W X Y Z