Song name
# A B C D E F G H I J K L M N O P Q R S T U V W X Y Z

Ivys Butterfly - Duplicity tab

Hey, This is my first tab , I hope you like it ... I think this is a great group!


Artist-Ivy's Butterfly
Song-Duplicity


Tune-Standard,Clean intro into deep distortion

e---------------------------------------------------------------------
B---------------------------------------------------------------------
G---------------------------------------------------------------------
D---6---6-------4---4-------2---2-----2---2---------------------------
A-4---4---4---2---2---2---0---0---0-0---0-----------------------------
E---------------------------------------------------------------------

e---------------------------------------------------------------------
B---------------------------------------------------------------------
G---------------------------------------------------------------------
D---6---6-------4---4-------2---2-------------------------------------
A-4---4---4---2---2---2---0---0---0-----------------------------------
E---------------------------------------------------------------------



Distort,you should be able to get the strums and when to distort
e---------------------------------------------------------------------
B---------------------------------------------------------------------
G-66-xx-44-xx-2222222222----------------------------------------------
D-66-xx-44-xx-2222222222----------------------------------------------
A-44-xx-22-xx-0000000000----------------------------------------------
E---------------------------------------------------------------------



Outro

e---------------------------------------------------------------------
B---------------------------------------------------------------------
G-66-xx-44-xx-7-------------------------------------------------------
D-66-xx-44-xx-7-------------------------------------------------------
A-44-xx-22-xx-5-------------------------------------------------------
E---------------------------------------------------------------------
Tap to rate this tab
# A B C D E F G H I J K L M N O P Q R S T U V W X Y Z