Song name
# A B C D E F G H I J K L M N O P Q R S T U V W X Y Z

J Cole - Cant Get Enough tab

e|----------------------------------------------------------------------|
B|----------------------------------------------------------------------|
G|----------------------------------------------------------------------|
D|----------------------------------------------------------------------|
A|-------2-5---------------2--5-----------------------------------------|
E|-0---3----  2--3--0----3-------2--3--0--------------------------------|

That's basically the whole song. Instead of going from the 2nd to 3rd fret on the E 
string, it sounds better if you bend to 3 as such:


e|-----------------------------------------------------------------------|
B|-----------------------------------------------------------------------|
G|-----------------------------------------------------------------------|
D|-----------------------------------------------------------------------|
A|------2-5--------------------------------------------------------------|
E|-0--3------2^3--0------------------------------------------------------|
Tap to rate this tab
 
# A B C D E F G H I J K L M N O P Q R S T U V W X Y Z