Song name
# A B C D E F G H I J K L M N O P Q R S T U V W X Y Z

J Cole - Sparks Will Fly tab

Main riff throughout the song:

 1:----12-11-(9)/11-9----------12-11-9-11-(9)/11-9-------------------------|
 2:-------------------13---------------------------13----------------------|
 3:---------------------12---------------------------12--------------------|
 4:------------------------------------------------------------------------|
 5:------------------------------------------------------------------------|
 6:------------------------------------------------------------------------|

 1:--16-14-12-14-(9)/11-9---------9--12--16--------------------------------|
 2:-----------------------13-----------------------------------------------|
 3:--------------------------12--------------------------------------------|
 4:------------------------------------------------------------------------|
 5:------------------------------------------------------------------------|
 6:------------------------------------------------------------------------|

/  = slide
() = start of slide
Tap to rate this tab
# A B C D E F G H I J K L M N O P Q R S T U V W X Y Z