Song name
# A B C D E F G H I J K L M N O P Q R S T U V W X Y Z

J Karjalainen - Hn tab

e|-------------------------------------|
B|-3s5----3s5--5---3s5--3--1--3--------|
G|-3s5----3s5--5---3s5--4--2--4--2-----|
D|-------------------------------------|
A|-------------------------------------|
E|-------------------------------------|

e|-------------------------------------|
B|-3s5--5----5--3--1--3--3----5--------|
G|-3s5--5----5--4--2--4--4----5--2-----|
D|-------------------------------------|
A|-------------------------------------|
E|-------------------------------------|

e|-------------------------------------|
B|-------------------------------------|
G|-------5s7--5------------------------|
D|-5-----5s7--5------------------------|
A|-------------------------------------|
E|-------------------------------------|

e|-------------------------------------|
B|-3s5----3s5--5---3s5--3--1--3--------|
G|-3s5----3s5--5---3s5--4--2--4--2-----|
D|-------------------------------------|
A|-------------------------------------|
E|-------------------------------------|

e|------3--5--8--5h8p8s3-----------------------------------|
B|-3s5--------------------5----3---5-----------------------|
G|-3s5--------------------------------2--------------------|
D|---------------------------------------------5---2--0----|
A|--------------------------------------------------------3|
E|---------------------------------------------------------|
Tap to rate this tab
 
# A B C D E F G H I J K L M N O P Q R S T U V W X Y Z