Song name
# A B C D E F G H I J K L M N O P Q R S T U V W X Y Z

J Karjalainen - Mennyt Mies tab

2 different lead guitar solos from the song. Ear-transcribed
b=bend full
/=slide

Intro Solo
E|------------------------------------------|
H|--10b-10b--------10b--10b--10-------------|
G|------------------------------9-9b/7------|
D|-------------------------------------9-9--|
A|------------------------------------------|
E|------------------------------------------|

E|-10b----/7---------7--------------7-------|
H|------------7-10b----10-------------10-7--|
G|------------------------9b-7-9-9b---------|
D|------------------------------------------|
A|------------------------------------------|
E|------------------------------------------|

E|--------------------------------------------|
H|--------------------------------------------|
G|-9-7-9b-7-----------------------------------|
D|----------9-9-------------------------------|
A|--------------------------------------------|
E|--------------------------------------------|



Verse Solo
E|-------------------------------------7-----|
H|---------------------7-------------7-------|
G|--4~--6~---7-9-7--9b----4~--6~--9b-----9-7-|
D|-------------------------------------------|
A|-------------------------------------------|
E|-------------------------------------------|

E|------------------------------------------|
H|------------------------------------------|
G|--4~--6~---7-9-7-6-4-4---4~--6~--6-7-6-4--|
D|------------------------------------------|
A|------------------------------------------|
E|------------------------------------------|
Tap to rate this tab
# A B C D E F G H I J K L M N O P Q R S T U V W X Y Z