J Mascis - Several Shades Of Why tab

-------------------------------------------------------------------------------
Several Shades of Why - J Mascis
-------------------------------------------------------------------------------
Tabbed by: Naturality
Email: naturality@hotmail.co.uk

Tuning: Standard, Capo on 7th fret
Key: D

INTRO
e|--------7---------7---------7----------------------------------------------------|
B|--10--------10--------10--------10p7--7-----------7h8p7------------------7-------|
G|---------------------------------------------9-----------9---------7---------7---|
D|-------------------------------------------9---------------9------7------------7-| 
A|--10--10----10--10----9---9-----9--------7------7--------------7h9-----9---------|
E|---------------------------------------------------------------------------------|


Verse Part 1 (listen to song for rhythm)
e|--7---|    e|--7---|   e|--7---|    e|--7---|
B|--10--|    B|--10--|   B|--10--|    B|--10--|
G|--7---|    G|--7---|   G|--7---|    G|--9---|
D|--7---|    D|--7---|   D|--9---|    D|--7---|
A|--9---|    A|--7---|   A|--10--|    A|--7---|
E|--10--|    E|--9---|   E|--7---|    E|--7---|


Verse Part 2 (again, listen to song for rhythm)
e|--7---|    e|--7---|   e|--7---|   e|--7---|  
B|--10--|    B|--10--|   B|--8---|   B|--10--|  
G|--7---|    G|--7---|   G|--9---|   G|--7---|
D|--9---|    D|--7---|   D|--9---|   D|--7---|  
A|--10--|    A|--9---|   A|--7---|   A|--9---|
E|--7---|    E|--7---|   E|--7---|   E|--7---|  


Bridge (played while violin plays)
e|--------------------------------------------------|
B|--7-----------10----------7-----------10----------|
G|--------------------------------------------------| 
D|--------------------------------------------------|
A|--10--10--10--10--10--10--9---9---9---9---9---9---|
E|--------------------------------------------------|

e|-----------------7-----------------------------7-------------------|
B|--7----8----10--------10---8---7----8----10---------10---8--7------|
G|-------------------------------------------------------------------|
D|-------------------------------------------------------------------|
A|--7----7----7----7----7----7----7----7----7----7----7----7---------|
E|-------------------------------------------------------------------|

On the second and third playthroughs, a second guitar adds:

e|--10---------10---------10---------10---------|
B|------10---------10----------10--------10-----|
G|----------------------------------------------| 
D|----------------------------------------------| 
A|----------------------------------------------|
E|----------------------------------------------|

e|--10---------10---------10---------12---------|
B|------10---------10----------10--------10-----|
G|----------------------------------------------| 
D|----------------------------------------------| 
A|----------------------------------------------|
E|----------------------------------------------|


Song Structure
Intro      x4
Verse Pt.1 x2
Verse Pt.2 x2
Intro      x4
Verse Pt.1 x2
Verse Pt.2 x2
Intro      x4
Bridge     x4
Verse Pt.1 x2
Verse Pt.2 x2
Intro      x12

End on the G shape.

************************************

| /   slide up
| \   slide down
| h   hammer-on
| p   pull-off
| ~   vibrato
| +   harmonic
| x   Mute note
| b   Bend
| pb  Pre-bend
| br  Bend release
| pbr Pre-bend release
| brb Bend release bend

************************************
Tap to rate this tab
 
# A B C D E F G H I J K L M N O P Q R S T U V W X Y Z