Song name
# A B C D E F G H I J K L M N O P Q R S T U V W X Y Z

J R Richards - Far End Of The Black tab

Far End of the Black
   J. R. Richards
       Standard tuning

               CAPO 3rd fret (Whole song is on Capo)
 Intro
e|--------------------------------------------------------------|
B|--------------------------------------------0h1p0-------------|
G|-------0-------0---------4h5p4-4----------0--------0------0---|
D|-----5---5---5---5-----5---------5------2-------------------0-| repeat
A|--3------------------3----------------3----------------3------|
E|--------------------------------------------------------------|

  h = Hammeron
  p = pulloff


   The majority of the song is this. (This is the strum pattern I use, but you could 
fallow the drums for the rhythm)(The D Chord part Iím not too sure about, but itís the 
right chords).

 C  ^   v v   ^   v v   ^ v           D ^ ^  ^   ^   ^    ^ ^  ^   ^   ^
e|--0---0-0---0---0-0---0-0---------||--2-2ó-2h3-2h3-3----2-2ó-2h3-2h3-2---|
B|--1---1-1---1---1-1---1-1---------||--3-3--3---3---3----3-3--3---3---3---|
G|--0---0-0---0---0-0---0-0---------||--2-2--2---2---2----2-2--2---2---2---|
D|--2---2-2---2---2-2---2-2---------||--0-0--0---0---0----0-0--0---0---0---|
A|--3---3-3---3---3-3---3-3---------||-------------------------------------|
E|----------------------------------||-------------------------------------|


^ = Down Strum
v = Up Strum
Tap to rate this tab
 
# A B C D E F G H I J K L M N O P Q R S T U V W X Y Z