Guitaretab - guitar tabs
Song name
# A B C D E F G H I J K L M N O P Q R S T U V W X Y Z

J-rocks - Semakin Sendiri tab

SEMAKIN SENDIRI						


Guitar Solo


e||-------------------------------------------------------------------||
B||-------------------------------------------------------------------||
G||-------------------------------------------------------------------||
D||------------2-4-5-5/7--5-4---1---1-2---9-7-9----7-5-7--7-7/9-5-----||
A||----2-3-3/5--------------------2-------------5---------------------||
E||--3----------------------------------------------------------------||

e||---------------------------------------------------------------------------------||
B||----------------------15-13-12~-12-15/17--12-12-10-10~--10-12-13-15/17-15/17-15~-||
G||-12~---11-12-12/14-12------------------------------------------------------------||
D||---------------------------------------------------------------------------------||
A||---------------------------------------------------------------------------------||
E||---------------------------------------------------------------------------------||
[ Tab from: http://www.guitaretab.com/j/j-rocks/100143.html ]
e||-------------------------------------------------------------||
B||-------------------------------------------------------------||
G||----------14-12/14-14/16-12--11-12----4-5-5/7-/16-/16~-14~---||
D||-5-7-7/9-----------------------------------------------------||
A||-------------------------------------------------------------||
E||-------------------------------------------------------------||

e||-------------------------------------------------||
B||-------------------------------------------------||
G||-9-11-12-9-12--16--16p14-14p12-12p11-11p19-9p7---||
D||-------------------------------------------------||
A||-------------------------------------------------||
E||-------------------------------------------------||
                     |----- KURANG YAKIN GW -----|


e||-------------------------------------12-14/15-14/15-14~-||
B||-15-14/15-13-12h13-10-12/13~---13-15--------------------||
G||--------------------------------------------------------||
D||--------------------------------------------------------||
A||--------------------------------------------------------||
E||--------------------------------------------------------||




e||--3~---||
B||--3~---||
G||--0~---||
D||--0~---||
A||--2~---||
E||--3~---||


TAB pertama gw neuy, kritik & saran : YM/FS : aldoputrasetia1992@yahoo.co.id [^_^]

Related for Semakin Sendiri tab
×
Best way to learn
"Semakin Sendiri"