J-rocks - Serba Salah tab

Intro serba salah(j-rocks)

   F                G              Em              A 
E|----------------|--------------|---------------|-------10-12--|
B|-5h10-10-12-13--|-13-12-12-10--|-10p8-8-10-11--|-11-10--------|
G|----------------|--------------|---------------|--------------|
D|----------------|--------------|---------------|--------------|
A|----------------|--------------|---------------|--------------|
E|----------------|--------------|---------------|--------------|

   Dm        G       C
E|--12b13--|-15b---|-12-12h13p12--------------------------------|
B|---------|-------|---------------13--------------------13-13--|
G|---------|-------|------------------12-10-9-9h10-9------------|
D|---------|-------|---------------------------------10---------|
A|---------|-------|--------------------------------------------|
E|---------|-------|--------------------------------------------|

salam kenal
By : bobBi....j-rockstar Pekalongan
qm isa temuin di FAceEboOk qhu...nech e-mail.a "ello_Mnh94@yahoo.co.id" (tanpa petik) n 
blog qhu "thenew-plurk.blogspot.com"
qhu uda lama nemuin nya tp bru skrg bs share...
tab ini juga aku postin di blog qu...
spirit 4 j-rocks..

Keterangan: h : hammer on
            P : pull down
Tap to rate this tab
 
# A B C D E F G H I J K L M N O P Q R S T U V W X Y Z