Song name
# A B C D E F G H I J K L M N O P Q R S T U V W X Y Z

J-rocks - Fallin In Love tab

J-Rocks - Fallin in Love
Sorry if there's a missing tab in this song

Intro
E |-----------------|
A |-----------------|
D |-----------------|     Play 4x
G |-----------------| Until Singer in
B |-3---3-----3-----|
E |---2---2/3---5-3-|

E |-----------------|           |------------------------|
A |-----------------|           |------------------------|
D |-----------------| Repeat    |------------------------|
G |-----------------| 6 times   |------------------------|
B |-3---3-----3-----|           |-3---3------------------|
E |---2---2/3---5-3-|           |---2---2/3-5-7--7-5-9-10|
Tap to rate this tab
# A B C D E F G H I J K L M N O P Q R S T U V W X Y Z