Song name
# A B C D E F G H I J K L M N O P Q R S T U V W X Y Z

J-rocks - Serba Salah tab

                                  Serba Salah                                   


                                                                         J-Rocks
Sony (Lead 2)



             W                   W                   W                 
E||-------|-------------------|-------------------|-------------------|
B||-------|-------------------|-------------------|-------------------|
G||-------|-------------------|-------------------|--9----------------|
D||-------|--3----------------|--5----------------|--9----------------|
A||-------|--3----------------|--5----------------|--7----------------|
E||-------|--1----------------|--3----------------|-------------------|


  H.           Q       W                   W                 
--------------------|-------------------|-------------------|
--------------------|-------------------|-------------------|
--6-----------------|--7----------------|-------------------|
--7-----------------|--7----------------|--5----------------|
--7-----------------|--5----------------|--5----------------|
--5-----------------|-------------------|--3----------------|


  W                   W                   W                 
-------------------|-------------------|-------------------|
-------------------|-------------------|-------------------|
--5----------------|--L----------------|--L----------------|
--5----------------|--L----------------|--L----------------|
--3----------------|--L----------------|--L----------------|
-------------------|-------------------|-------------------|


  S S S S S S S S S S S S S S S S    S S S S S S S S S S S S S S S S  
----------------------------------|----------------------------------|
----------------------------------|----------------------------------|
--5---5---5---5-5-----------------|--7---7---7---7-7-----------------|
--5---5---5---5-5-7---7---7---7-7-|--7---7---7---7-7-5---5---5---5-5-|
--3---3---3---3-3-7---7---7---7-7-|--5---5---5---5-5-5---5---5---5-5-|
------------------5---5---5---5-5-|------------------3---3---3---3-3-|


  S S S S S S S S S S S S S S S S    S S S S S S S S S S S S S S S S  
----------------------------------|----------------------------------|
----------------------------------|----------------------------------|
--9---9---9---9-9-----------------|--7---7---7---7-7-----------------|
--9---9---9---9-9-7---7---7---7-7-|--7---7---7---7-7-5---5---5---5-5-|
--7---7---7---7-7-7---7---7---7-7-|--5---5---5---5-5-5---5---5---5-5-|
------------------5---5---5---5-5-|------------------3---3---3---3-3-|


  S S S S S S S S S S S S S S S S    S S S S S S S S S S S S S S S S  
----------------------------------|----------------------------------|
----------------------------------|----------------------------------|
----------------------------------|----------------------------------|
--5---5---5---5-5-7---7---7---7-7-|--7---7---7---7-7-5---5---5---5-5-|
--3---3---3---3-3-7---7---7---7-7-|--5---5---5---5-5-5---5---5---5-5-|
------------------5---5---5---5-5-|------------------3---3---3---3-3-|


  S S S S S S S S S S S S S S S S    S S S S S S S S S S S S S S S S  
----------------------------------|----------------------------------|
----------------------------------|----------------------------------|
----------------------------------|----------------------------------|
--9---9---9---9-9-7---7---7---7-7-|--7---7---7---7-7-5---5---5---5-5-|
--7---7---7---7-7-7---7---7---7-7-|--5---5---5---5-5-5---5---5---5-5-|
------------------5---5---5---5-5-|------------------3---3---3---3-3-|


  S S S S S S S S S S S S S S S S    S S S S S S S S  S  S  S  S  S  S  S  S  
----------------------------------|------------------------------------------|
----------------------------------|--x-8-x-8-x-8-x-8--x-10--x-10--x-12--x-12-|
--5---5---5---5---5---5---5---5---|------------------------------------------|
--5---5---5---5---5---5---5---5---|------------------------------------------|
--3---3---3---3---3---3---3---3---|------------------------------------------|
----------------------------------|------------------------------------------|


  S S S S S S S S S S S S  S  S  S  S    S S S S S S S S  S  S  S  S S S  S S  
--------------------------------------|---------------------------10-8-7------|
--x-6-x-6-x-6-x-6-x-8-x-8--x-10--x-10-|--x-8-x-8-x-8-x-8--x-10--x--------10-8-|
--------------------------------------|---------------------------------------|
--------------------------------------|---------------------------------------|
--------------------------------------|---------------------------------------|
--------------------------------------|---------------------------------------|


  S S S S S S S S S S S S S  S S S    S S S S S S S S  S  S  S  S  S  S  S  S  
------------------------8-7--------|------------------------------------------|
--x-6-x-6-x-6-x-6-x-8-x-----10-8-6-|--x-8-x-8-x-8-x-8--x-10--x-10--x-12--x-12-|
-----------------------------------|------------------------------------------|
-----------------------------------|------------------------------------------|
-----------------------------------|------------------------------------------|
-----------------------------------|------------------------------------------|


  S S S S S S S S S S S S  S  S  S  S    S S S S S S S S  S  S  S  S S S  S S  
--------------------------------------|---------------------------10-8-7------|
--x-6-x-6-x-6-x-6-x-8-x-8--x-10--x-10-|--x-8-x-8-x-8-x-8--x-10--x--------10-8-|
--------------------------------------|---------------------------------------|
--------------------------------------|---------------------------------------|
--------------------------------------|---------------------------------------|
--------------------------------------|---------------------------------------|


  S S S S S S S S S S S  S S S S S    Q.     H        E   
-----------------------------------|---------------------|
--x-6-x-6-x-6-x-6-x-8-x-10-8-6-5-6-|--5------------------|
-----------------------------------|---------------------|
-----------------------------------|---------------------|
-----------------------------------|---------------------|
-----------------------------------|---------------------|


  E  E  S E  E  E  E  S E     E  E  S E  E  E  E  S E   
---------------------------|---------------------------|
---------------------------|---------------------------|
---------------------------|---------------------------|
--3--3--3-3--5--5--5--5-5--|--9--9--9-9--7--7--7--7-7--|
--3--3--3-3--5--5--5--5-5--|--7--7--7-7--7--7--7--7-7--|
--1--1--1-1--3--3--3--3-3--|-------------5--5--5--5-5--|


  E  E  S E  E  E  E  S E     E  E  S E  E  S E  E  E   
---------------------------|---------------------------|
---------------------------|---------------------------|
---------------------------|--5--5--5-5--5--5-5--5--5--|
--7--7--7-7--5--5--5--5-5--|--5--5--5-5--5--5-5--5--5--|
--5--5--5-5--5--5--5--5-5--|--3--3--3-3--3--3-3--3--3--|
-------------3--3--3--3-3--|---------------------------|


  E  E  S E  E  E  E  S E     E  E  S E  E  E  E  S E   
---------------------------|---------------------------|
---------------------------|---------------------------|
---------------------------|---------------------------|
--3--3--3-3--5--5--5--5-5--|--9--9--9-9--7--7--7--7-7--|
--3--3--3-3--5--5--5--5-5--|--7--7--7-7--7--7--7--7-7--|
--1--1--1-1--3--3--3--3-3--|-------------5--5--5--5-5--|


  E  E  S S E  S S E  S S E     E  E  S S E  S S E  S S E                     
-----------------------------|-----------------------------|-----|-----|-----|
-----------------------------|-----------------------------|-----|-----|-----|
-----------------------------|-----------------------------|-----|-----|-----|
--x--7--x-x-7--x-x-7--x-x-7--|--x--5--x-x-5--x-x-5--x-x-5--|-----|-----|-----|
--x--5--x-x-5--x-x-5--x-x-5--|--x--5--x-x-5--x-x-5--x-x-5--|-----|-----|-----|
---------------x-x-----------|-----3------3--x-x-3------3--|-----|-----|-----|


  H        Q.     S S    S S S S S S S S E  E  E  E   
----------------------|------------------------------|
--------------------5-|----5-5---5-5-5---5-----5-----|
--------------------5-|----5-5---5-5-5---5-----5-----|
----------------------|------------------------------|
--------------------3-|----3-3---3-3-3---------------|
----------------------|------------------5-----5-----|


  E  E  E  E  E  E  E  S S    S S S S S S S S S S S S S S S S  
---------------------------|----------------------------------|
--6-----6------------------|----------------------------------|
--------------4-----4----9-|----9-9---9-9-9-------------------|
---------------------------|------------------7-7-7---7-7-7---|
--5-----5----------------7-|----7-7---7-7-7-------------------|
--------------3-----3------|------------------5-5-5---5-5-5---|


  S S S S S S S S S S S S S S S S    W                 
----------------------------------|-------------------|
------------------------------3---|--5----------------|
--7-7-7---7-7-7-------------4-4---|--5----------------|
------------------5-5-5---5-5-5---|-------------------|
--5-5-5---5-5-5-----------5-5-5---|--3----------------|
------------------3-3-3---3-3-3---|-------------------|


  H        S S S S S S S S    E  E  S E  E  E  E  S E   
---------------------------|---------------------------|
--5--------L---------------|---------------------------|
--5--------L---------------|---------------------------|
-------------x-5-x-5-x-5-x-|--3--3--3-3--5--5--5--5-5--|
--3--------L-x-3-x-3-x-3-x-|--3--3--3-3--5--5--5--5-5--|
---------------------------|--1--1--1-1--3--3--3--3-3--|


  E  E  S E  E  E  E  S E     E  E  S E  E  E  E  S E   
---------------------------|---------------------------|
---------------------------|---------------------------|
---------------------------|---------------------------|
--9--9--9-9--7--7--7--7-7--|--7--7--7-7--5--5--5--5-5--|
--7--7--7-7--7--7--7--7-7--|--5--5--5-5--5--5--5--5-5--|
-------------5--5--5--5-5--|-------------3--3--3--3-3--|


  E  E  S E  E  S E  E  E     E  E  S E  E  E  E  S E   
---------------------------|---------------------------|
---------------------------|---------------------------|
--5--5--5-5--5--5-5--5--5--|---------------------------|
--5--5--5-5--5--5-5--5--5--|--3--3--3-3--5--5--5--5-5--|
--3--3--3-3--3--3-3--3--3--|--3--3--3-3--5--5--5--5-5--|
---------------------------|--1--1--1-1--3--3--3--3-3--|


  E  E  S E  E  E  E  S E     E  E  S S E  S S E  S S E   
---------------------------|-----------------------------|
---------------------------|-----------------------------|
---------------------------|-----------------------------|
--9--9--9-9--7--7--7--7-7--|--x--7--x-x-7--x-x-7--x-x-7--|
--7--7--7-7--7--7--7--7-7--|--x--5--x-x-5--x-x-5--x-x-5--|
-------------5--5--5--5-5--|---------------x-x-----------|


  E  E  S S E  S S E  S S E     E  S S S S S S S S S S S S S S  
-----------------------------|---------------------------------|
-----------------------------|---------------------------------|
-----------------------------|---------------------------------|
--x--5--x-x-5--x-x-5--x-x-5--|-----5-5-x-x-5-5-x-x-5-5-x-x-5-5-|
--x--5--x-x-5--x-x-5--x-x-5--|-----3-3-x-x-3-3-x-x-3-3-x-x-3-3-|
-----3------3--x-x-3------3--|---------------------------------|


  E  S S S S S S S S S S S S S S    E  S S S S S S S S S S S S S S  
---------------------------------|---------------------------------|
---------------------------------|---------------------------------|
---------------------------------|---------------------------------|
-----5-5-x-x-5-5-x-x-5-5-x-x-5-5-|-----5-5-x-x-5-5-x-x-5-5-x-x-5-5-|
-----3-3-x-x-3-3-x-x-3-3-x-x-3-3-|-----3-3-x-x-3-3-x-x-3-3-x-x-3-3-|
---------------------------------|---------------------------------|


  E  S S S S S S S S  X  X  X  X  X  X  X  X  X  X  X  X  X  X  X  X  X  X X X X
--------------------------------------------------------------------------------
--------------------------------------------------------------------------------
--------------------------------------------------------------------------------
-----5-5-x-x-5-5-x-x------------------------------------------------------------
-----3-3-x-x-3-3-x-x-20-19-18-17-16-15-14-13-12-12-12-12-11-11-11-10-10-10-9-9-9
---------------------20-19-18-17-16-15-14-13-12-12-12-12-11-11-11-10-10-10-9-9-9


  H        H           H        H           H        H         
--------------------|--------------------|--------------------|
--------------------|--------------------|--------------------|
--5-----------------|--7-----------------|--9--------6--------|
--5--------7--------|--7--------5--------|--9--------7--------|
--3--------7--------|--5--------5--------|--7--------7--------|
-----------5--------|-----------3--------|-----------5--------|


  H        H           H        H           H        H         
--------------------|--------------------|--------------------|
--------------------|--------------------|--------------------|
--7-----------------|--5-----------------|--7-----------------|
--7--------5--------|--5--------7--------|--7--------5--------|
--5--------5--------|--3--------7--------|--5--------5--------|
-----------3--------|-----------5--------|-----------3--------|


  H        H           H        H           H        H         
--------------------|--------------------|--------------------|
--------------------|--------------------|--------------------|
--9--------6--------|--7-----------------|--5--------5--------|
--9--------7--------|--7--------5--------|--5--------5--------|
--7--------7--------|--5--------5--------|--3--------3--------|
-----------5--------|-----------3--------|--------------------|


  H        H           E  E  S E  E  E  E  S E     E  E  S E  E  E  E  S E   
--------------------|---------------------------|---------------------------|
--------------------|---------------------------|---------------------------|
--5--------5--------|---------------------------|---------------------------|
--5--------5--------|--3--3--3-3--5--5--5--5-5--|--9--9--9-9--7--7--7--7-7--|
--3--------3--------|--3--3--3-3--5--5--5--5-5--|--7--7--7-7--7--7--7--7-7--|
--------------------|--1--1--1-1--3--3--3--3-3--|-------------5--5--5--5-5--|


  E  E  S E  E  E  E  S E     E  E  S E  E  S E  E  E   
---------------------------|---------------------------|
---------------------------|---------------------------|
---------------------------|--5--5--5-5--5--5-5--5--5--|
--7--7--7-7--5--5--5--5-5--|--5--5--5-5--5--5-5--5--5--|
--5--5--5-5--5--5--5--5-5--|--3--3--3-3--3--3-3--3--3--|
-------------3--3--3--3-3--|---------------------------|


  E  E  S E  E  E  E  S E     E  E  S E  E  E  E  S E   
---------------------------|---------------------------|
---------------------------|---------------------------|
---------------------------|---------------------------|
--3--3--3-3--5--5--5--5-5--|--9--9--9-9--7--7--7--7-7--|
--3--3--3-3--5--5--5--5-5--|--7--7--7-7--7--7--7--7-7--|
--1--1--1-1--3--3--3--3-3--|-------------5--5--5--5-5--|


  E  E  S E  E  E  E  S E      S  S  S  S  S  S S S S S S S E  E   
---------------------------|--------------------------------------|
---------------------------|--------------------------------------|
--7--7--7-7--7--7--7--7-7--|--12-12-12-10-10-10-9-9-9-7-7-7-5--4--|
-------------7--7--7--7-7--|--------------------------------------|
--5--5--5-5--5--5--5--5-5--|--10-10-10--8--8--8-7-7-7-5-5-5-3--2--|
---------------------------|--------------------------------------|


  W                        
-------------------|-----||
-------------------|-----||
--5----------------|-----||
-------------------|-----||
--3----------------|-----||
-------------------|-----||




Duration Legend
---------------
W - whole
H - half
Q - quarter
E - 8th
S - 16th
T - 32nd
X - 64th
. - note dotted
|-n-|  - n-tuplets


Tablature Legend
----------------
L - tied note
x - dead note
g - grace note
(n) - ghost note
> - accentuded note
NH - natural harmonic
AH - artificial harmonic
TH - tapped harmonic
SH - semi harmonic
PH - pitch harmonic
h - hammer on
p - pull off
b - bend
br - bendRelease
pb - preBend
pbr - preBendRelease
brb - bendReleaseBend
\n/ - tremolo bar dip
\n - tremolo bar dive
-/n - tremolo bar Release up
/n\ - tremolo bar inverted dip
/n - tremolo bar return
-\n - tremolo bar Release down
S - shift slide
s - legato slide
/ -  slide into from below or out of upwards
\ -  slide into from above or out of downwards
~ - vibrato
W - wide vibrato
tr - trill
TP - tremolo picking
T - tapping
S - slap
P - pop
< - fade in
^ - brush up
v - brush down
Tap to rate this tab
# A B C D E F G H I J K L M N O P Q R S T U V W X Y Z