Guitaretab - guitar tabs
Song name
# A B C D E F G H I J K L M N O P Q R S T U V W X Y Z

J-rocks - Kau Curi Lagi tab

E-----------------|---11------------|-----------------|-16-14-13h14p13--13-----------|
B-11--11-13b-13---|-----13-14-------|---14-16b-16-----|---------------16--16-14------|
G---11------------|-13--------------|-15--------------|------------------------13-14-|
D-----------------|-----------------|-----------------|------------------------------|
A-----------------|-----------------|-----------------|------------------------------|
E-----------------|-----------------|-----------------|------------------------------|
 
E-----------------|---14------------|-----------------|-14-14-14-14-14---14----|
B---14-16b-16-----|-----16-17-------|-17-17-17-17-17--|------------------------|
G-14--------------|-16--------------|-----------------|------------------------|
D-----------------|-----------------|-----------------|------------------------|
A-----------------|-----------------|-----------------|------------------------|
E-----------------|-----------------|-----------------|------------------------|

E-15-15-15-15-15---17-|(first)

don't know for the end
it's too noisy
if you know better tab please tell me
(refar_2004@yahoo.com)
[ Tab from: http://www.guitaretab.com/j/j-rocks/93745.html ]
Related for Kau Curi Lagi tab