Song name
# A B C D E F G H I J K L M N O P Q R S T U V W X Y Z

Ja Panik - Ob Ich Das Verdiene tab

Ob Ich Das Verdiene Intro
-----------------------------------------------------------------

Band: Ja, Panik
Album: Ja, Panik

http://ja-panik.com/

e|---------------------------------------------------------------|
B|-------------------------------------8~~~----------------------|
G|---------------------------------------------------------------|
D|----4---5-p-4---4~~~-----5---9---------------------------------|
A|5--------------------------------------------------------------|
E|---------------------------------------------------------------|

e|---------------------------------------------------------------|
B|---------------------------------------------------------------|
G|---------------------------------------------------------------|
D|----4---5-p-4-----------4-----------4---2---0------------------|
A|5---------------4-----------0---2------------------------------|
E|---------------------------------------------------------------|
Tap to rate this tab
 
# A B C D E F G H I J K L M N O P Q R S T U V W X Y Z