Song name
# A B C D E F G H I J K L M N O P Q R S T U V W X Y Z

Ja Rule - Always On Time tab

Always On Time - Ja Rule
Tabbed By: Jonathan Mendoza
Tabbed On: 28/2/04

This riff is really easy. It was the first thing I played on the guitar and you
can play around with it. This is the real guitar riff, i mathced it to the song. 

 Guitar Riff        (Through out the whole song)
=============

E|--------x---------------x--------x---------------x---4----x---4h6----4----x
B|---4----x---4h6----4----x---4----x---4h6----4----x--------x---------------x
G|--------x---------------x--------x---------------x--------x---------------x
D|--------x---------------x--------x---------------x--------x---------------x
A|---3----x---3------3----x---3----x---3------3----x---4----x---4------4----x
E|--------x---------------x--------x---------------x--------x---------------x

E|---6----x---6h8----6----| (You can just take out the bass strings for an
B|--------x---------------|  easier version of this song
G|--------x---------------|
D|--------x---------------|
A|---6----x---6------6----|
E|--------x---------------|

This is my first tab! =)
If you have any questions or wanna bag it out, send it to:
ripl_7@msn.com
Good Luck!
Tap to rate this tab
# A B C D E F G H I J K L M N O P Q R S T U V W X Y Z