Song name
# A B C D E F G H I J K L M N O P Q R S T U V W X Y Z

Jacco Gardner - The End Of August tab

Jacco Gardner – The End Of August

CAPO IV

The song is played in this picking pattern

INTRO and VERSE chords
   Am7     Am6     Am      Am6
e|-3----3--2----2--0----0--2----2--|
B|----1-------1-------1-------1----|
G|---2---2---2---2---2---2---2---2-|
D|---------------------------------|
A|-0---0---0---0---0---0---0---0---|
E|---------------------------------|

  Bmsus4
e|---------0------------0-------0--|
B|-3----3-------3--3-------3-------|
G|----4-------4-------4-------4----|
D|---4---4---4---4---4---4---4---4-|
A|-2---2---2---2---2---2---2---2---|
E|---------------------------------|

   Dmsus2
e|---------0----0-------0-------0--|
B|-6----6----------6-------6-------|
G|----7-------7-------7-------7----|
D|---7---7---7---7---7---7---7---7-|
A|-5---5---5---5---5---5---5---5---|
E|---------------------------------|

   Am      Am9     Am      Am9
e|------0-------0-------0-------0--|
B|-1-------0-------1-------0-------|
G|----2-------2-------2-------2----|
D|---2---2---2---2---2---2---2---2-|
A|-0---0---0---0---0---0---0---0---|
E|---------------------------------|

VERSE 1
Swallows leaving for the sun
Tells me september has begun

Winter rain is waiting, for it’s throne
Where all the other summer birds have flown

CHORUS
C#m          E
But here’s the sun
C#m        E
It shines again
C#m         E
Not for the last time
C#m     G      F#m     F              Em
But the golden days of summertime are gone

CHORUS END RIFF
   Am   Am9     Am      Am9
e|------0--3-------|           e|-------------|
B|-1------------0--|           B|-1----0--1---|
G|----2-------2----| 3x, then  G|----2--------|
D|---2---2---2---2-|           D|---2---2-----|
A|-0---0---0---0---|           A|-0---0---0---|
E|-----------------|           E|-------------|

VERSE 2
Cold wind moves the autumn leaves
Blowing winter in my sleeves

Nights are colder than before
Shadows wait for me once more

CHORUS
C#m            E
But here’s the sun
C#m        E
It shines again
C#m         E
Not for the last time
C#m     G      F#m     F              Em
But the golden days of summertime are gone

CHORUS END RIFF

Dm         E
The end of August
Dm         E
It strikes again
Dm          E
Not for the last time
Dm      G      F#m     F              E
But the golden days of summertime are gone
    G      F#m     F              E
The golden days of summertime are gone

Am
Tap to rate this tab
# A B C D E F G H I J K L M N O P Q R S T U V W X Y Z