Song name
# A B C D E F G H I J K L M N O P Q R S T U V W X Y Z

Jace Everett - Bad Things tab

                               Jace Everett - Bad Things.                        



Intro

E|--0-2-0-3-0-3-2-0--|



Verse



Em            B7              Em
When you came in the air went out
Em         B7            Em
And every shadow filled up with doubt
Am                   Em                   B7                Em
I don't know who you think you are but before the night is through
Em       B7                Em
I wanna do bad things with you

Em          B7                 Em
I'm the kind to sit up in his room
Em          B7                 Em
Heart sick an' eyes filled up with blue
Am                   Em                   B7                Em
I don't know what you've done to me but I know this much is true
Em       B7                Em
I wanna do bad things with you...okay


Solo


E |-------------------------------------------------------------------------|
B |----------------10b11--10\8 ---------------------------------------------|
G |-5b6-4----------------------7/9---5-7-5-8-5-10-11b12---------------------|
D |--------7----------------------------------------------------------------|
A |-------------------------------------------------------------------------|
E |-------------------------------------------------------------------------|


E|--------------------------------------------------------------------------|
B|------5-5-5---------------------------------------------------------------|
G|---------------------------------------------------5-2--------------------|
D|--10-9-9-9-7-4-3-2~2~2~----------------------------------5-2--------------|
A|-------------------------------------------------------------5-2----------|
E|-----------------------------------------------------------------5- 2- 0--|


Last verse/chorus



Em            B7              Em
When you came in the air went out
Em            B7              Em
And all those shadows there are filled up with doubt
Am                   Em                   B7                Em
I don't know who you think you are but before the night is through
Em       B7                Em
I wanna do bad things with you

I wanna do real bad things with you






This is my first whole song tab..hope its okay, sounds pretty decent to me when i play it :)

Joegul@hotmail.co.uk 

Tap to rate this tab
# A B C D E F G H I J K L M N O P Q R S T U V W X Y Z