Song name
# A B C D E F G H I J K L M N O P Q R S T U V W X Y Z

Jace Everett - Bad Things tab

----------------------------------------------------------------------------
			     Bad Things (Solo) - Jace Everett
----------------------------------------------------------------------------

Tabbed by: Martin | Check out my band: www.cforcaroline.de	
Email: martin [at] cforcaroline.de

Tuning: standard

The Chord tabs here are all accurate, but I didn't find a good solo tab so I just 
did it myself. I think the song is tuned down 1 whole step, so imagine the last D
to be a 'dropped D'. Add a bit vibrato from time to time, you'll get the feeling. 
Enjoy!

e|------------------------------------------------------------0---0----|
B|-------------------10b12b10p8--------------7-8-9b8-------------------|
G|------------------------------9~\--8---8-9---------9~\----9---9---7--|
D|--------9b10b9-7--------------------9--------------------------------|
A|---/7~----------------------------this is played---------------------|
E|----------------------------------staccato-like----------------------|

e|---------------------------------------------------------------------|
B|---------------------------------------------------------------------|
G|---------------------------------------------------------------------|
D|-9-7-5-7b9b7-5-7-5-7b9b7-5-7-5---------------------------------------|
A|-------------------------------7-5---- --------5---------------------|
E|-----------------------------------7-5-2b3-2-0---0-----repeat verse--|


************************************

| /   slide up
| \   slide down
| h   hammer-on
| p   pull-off
| ~   vibrato
| +   harmonic
| x   Mute note
| b   Bend
| pb  Pre-bend
| br  Bend release
| pbr Pre-bend release
| brb Bend release bend

************************************
Tap to rate this tab
# A B C D E F G H I J K L M N O P Q R S T U V W X Y Z