Song name
# A B C D E F G H I J K L M N O P Q R S T U V W X Y Z

Jaci Velasquez - Flower In The Rain tab

Help us improve GuitareTab! Take a short survey!
Song: Flower in the Rain
Artist: Jaci Velasquez
Chords by: Joery Duco


Hi! This is One of my favorite Christian Song. I dedicate this to all my friends
especially to God, for giving me such talent in playing my guitar. Hi also to my
alma mater, Lagao National High School also to the students of Notre Dame of
Dadiangas College. Hi Jeremae,Rhoanne,Sharon and to the Bantawig Family and Ricanor
Family! Hi also to the Duco family, my family!

Capo on First Fret

Intro:
D		G
Aah, la, la, la, ah-la la la la (la la)
Aah, la, la, la, ah-la la la la

Verse 1:s
	     D			G
You are the one, there's no one else
	     A			Bm
Who lifts me up and gives me water from the well.
	     D			G
But there's a hole that seems to drain it all away.
	     A
And once again I'm left in fear and doubt
      Bm			A
When all my strength is crying out.

Chorus:
    D
So, here I am again
		G			  A
Willing to be opened up and broken like a flower in the rain.
		  Bm				G
Tell me what have I to do to die and then be raised,
		    A				D
To reach beyond the pain like a flower in the rain?

D		G		D
Aah, la, la, la, ah-la la la la

Verse 2:
(Same chords as verse 1)
The evil wind, (ooh) it blows a storm to rock my world (aah)
Just when think I'm safe and warm.
I'm led astray far too easily.
It's always hard for me to say I'm wrong,
Until I know I can't go on.

(Repeat Chorus)

Bridge:

C				D
Lord, You have searched me and know
			Bm
When I sleep and when I rise.
			    F#m
You're familiar with all my ways.
C
Even the darkness will shine
Bm	 F#m			   E
Like the day when You look into my heart.

(Repeat Chorus)
			  (Intro Chords)
Like a flower in the rain? 




Intro:

e----------------------5-----------------------------|-----------------|
B-----6----------6h7-----8-6--------------6---6h8-6--|--6-5------------|
G----5----5-----5-------5-5--5----------5---5--------|-------7-5-------|
D---7-------7-7-----------------7------7-------------|-----------7-----|
A-5----------------------------------5---------------|-----------------|
E----------------------------------------------------|-----------------|

e----------------------5-----------------------------|-----------------|
B-----6----------6h7-----8-6--------------6---6h8-6--|--6-5------------|
G----5----5-----5-------5-5--5----------5---5--------|-------7---------|
D---7-------7-7-----------------7------7-------------|-----------------|
A-5----------------------------------5---------------|-----------------|
E----------------------------------------------------|-----------------|


Verses:
 D				    G
e--------0-------0--0h2-0-----------------0--------0--0h2-0--------|
B------3--------3---------3-------------3--------3----------3------|
G----2--------2-------------2---------2--------2--------------2----|
D--0--------0------0----------0--------------0-------0----------0--|
A------------------------------------------------------------------|
E-----------------------------------3------------------------------|

 A				   Bm
e--------0---------------0----------------0-------------0----------|
B--------------0---------------0-----------------3------------3----|
G------2-----2--------2------2---------4-------4------4-----4------|
D----2-----2--------2------2---------4-------4-------4----4--------|
A--0--------------0----------------2----------------2--------------|
E------------------------------------------------------------------|


Chorus:

 D	     G		A	  Bm
e--0-0-0-0----0-0-0-0----0-0-0-0---0-0-0-0-----|
B--3-3-3-3----3-3-3-3----0-0-0-0---3-3-3-3-----|
G--2-2-2-2----2-2-2-2----2-2-2-2---4-4-4-4-----|
D--0-0-0-0----0-0-0-0----2-2-2-2---4-4-4-4-----|
A-------------0-0-0-0----0-0-0-0---2-2-2-2-----|
E-------------3-3-3-3--------------------------|


 G	       A	D			     G		   A
e--0-0-0-0-----0-0-0-0--------0-------0-0h2-0--------------0-------0----|
B--3-3-3-3-----3-3-3-3------3-------3---------3--------------------0----|
G--2-2-2-2-----4-4-4-4----2-------2-------------2--------2---2-----2----|
D--0-0-0-0-----4-4-4-4--0-------0------0----------0----0-------0---2----|
A--0-0-0-0-----2-2-2-2---------------------------------------------0----|
E--3-3-3-3-------------------------------------------3------------------|

Bridge.

outro:

e----------------------5-----------------------------|----------------6-----|
B-----6----------6h7-----8-6--------------6---6h8-6--|--6-5-----------7h9---|
G----5----5-----5-------5-5--5----------5---5--------|-------7-5------6-----|
D---7-------7-7-----------------7------7-------------|-----------7----8-----|
A-5----------------------------------5---------------|----------------6-----|
E----------------------------------------------------|----------------------|



For more info:

e-mail: Joery_brinch@yahoo.com
website: www.joeryrj.tk
invite me also in friendster, Christianster, sms.ac, and hi5.
Related for Flower In The Rain tab