Song name
# A B C D E F G H I J K L M N O P Q R S T U V W X Y Z

Jack Black - Comperman tab

                              play x2
 Am            E                F          C      G
|------------------------------------------------------------------------|
|-----1---------------------0---1--1-------------------------------------|
|-----2--0----h1--1-------------2--2--0--------0-------------------------|
|-----2-----0-h2----------------3--3-----0h2---------0-------0-----------|
|0-0----------h2--------2-------3--3------h3------------0h2--------------| 
|--------------------0----------1--1------h3------3-----3----------------|

 Am            E                F          C  G     Am
|---------------------------------------------------0--------------------|
|-----1---------------------0---1--1----------------1--------------------|
|-----2--0----h1---1------------2--2----------------2--------------------|
|-----2-----0-h2----------------3--3-------2--0-----2--------------------|
|0-0----------h2--------2-------3--3--0h2--3--2-----0--------------------|
|--------------------0----------1--1-------3--3--------------------------|
 
Tap to rate this tab
 
# A B C D E F G H I J K L M N O P Q R S T U V W X Y Z