Song name
# A B C D E F G H I J K L M N O P Q R S T U V W X Y Z

Jack Conte - I Love You Still tab

"Love You Still" by Jack Conte
From VS4 B-Sides and Stuff

THIS IS CURRENTLY INCOMPLETE, I will finish it later tonight!

Tabbed by Connor Nishijima

It's just a barred E chord moved up and down the neck. :)

Barred E chord: 133211

e|-----------------------------------------|
B|-----------------------------------------|
G|--------6---------3---------8--------1---|
D|--------6---------3---------8--------1---|
A|-----7---------4---------9--------2------|
E|---5---------2---------7--------0--------|

It's been so long I can barely tell

e|-----------------------------------------|
B|-----------------------------------------|
G|--------6---------4----------11-------14-|
D|--------6---------4----------11-------14-|
A|-----7---------5----------12------15-----|
E|---5---------3---------10-------13-------|

Somehow  we're frozen    here in hell
Tap to rate this tab
# A B C D E F G H I J K L M N O P Q R S T U V W X Y Z