Song name
# A B C D E F G H I J K L M N O P Q R S T U V W X Y Z

Jack Dolgen - I Will Come For You chords

Highlighted       Show chord diagrams
I Will Come For You by Jack Dolgen
www.jackdolgen.com

Intro x 4

e:---------------------------------|
B:----------0----------------------|
G:------------------------0--------|
D:---------------------------------|
A:---------------------------------|
E:--3------------------------------|

Or:
e:---------------------------------|
B:---------------------------------|
G:-----------4---------------------|
D:-------------------------5-------|
A:---------------------------------|
E:--3------------------------------|

(during verse simular pattern with other chords)

G
If it's not too early,

I will come for you.
                Am
If it's not too early,
                G
I will come for you.
     Am                  Hm            C
Just tell me that you're coming for me too.
                     G
 And I will come for you.

                      Am
'cause I've been here before,
                   Hm
 Ya I know what it's like,
             C
Oh what it's like,
   Hm      Am     G
I have been here before.


Hm                G*
Ba baba baba baba x3
Hm                Am
Ba baba baba baba


G
Hm             Am
  If you got a question,
             G
I'll ask one too.
Hm             Am
  If you got a question,
               G
I will ask one too.
Hm     Am                                 C
  Just tell me that you're answer will be true.
                     G
 And I will come for you.
                       Am
Because I've been here before,
                   Hm
Ya I know what it's like,
             C
Oh what it's like,
Hm        Am      G
I have been here before.


Hm                G*
Ba baba baba baba x3
Hm                Am
Ba baba baba baba

G - Hm - Am x 2
G - Hm

*
e:--7----5----7----5----------7----|
B:-------------------------8-------|
G:---------------------------------|
D:---------------------------------|
A:---------------------------------|
E:---------------------------------|
Tap to rate this tab
# A B C D E F G H I J K L M N O P Q R S T U V W X Y Z