Song name
# A B C D E F G H I J K L M N O P Q R S T U V W X Y Z

Jack Frost - Birdowner As Seen On Tv tab

VERSE

Guitar 1
e|--------------|-------------|--------------|---------------|
B|--------------|-------------|--------------|---------------|
G|-7-----7--7---|----------5--|-7-----7--7---|------------5--|
D|-7-----7--7---|----------5--|-7-----7--7---|------------5--|
A|-5-----5--5---|----------3--|-5-----5--5---|------------3--|
E|--------------|-------------|--------------|---------------|

Guitar 2
e|-----------------------------|   
B|----------------------7------|   
G|-7---7-7--5-7--7-5--7---7-5--|  
D|-0---0-0--0-0--0-0--0-----0--|   
A|-----------------------------|   
E|-----------------------------| 

(Guitar 3)
e|-----------------------------|
B|-----------7-----------------|
G|-7---5-7-5---7----5----------|
D|-0---0-0-0--------0----------|
A|-----------------------------|
E|-----------------------------|



(Chords)
D     C




CHORUS

e|-----3------3-5-3------3--------3-----|
B|---5---5--6----------5---5------------|
G|-0-----------------0--------4-5---5---|
D|--------------------------------------|
A|--------------------------------------|
E|--------------------------------------|



(Chords)
C     G     Am     G




Repeat VERSE
Repeat CHORUS

BRIDGE

A     B     F#m     B



Repeat VERSE
Repeat CHORUS

They don't have an official website, but this should be proof enough that this band is legit:
http://en.wikipedia.org/wiki/Jack_Frost_(band) 

Tap to rate this tab
 
# A B C D E F G H I J K L M N O P Q R S T U V W X Y Z