Song name
# A B C D E F G H I J K L M N O P Q R S T U V W X Y Z

Jack Ingram - Barefoot And Crazy tab

|------------------------------------------------3-let ring-|
|1h3-3-3-3-1-0-1-1-1-1-1-0------1h3-3-3-3-1-0-1--3-let ring-|
|0---0-0-0-0-0-0-0-0-0-0-0-2p0--0---0-0-0-0-0-0-------------| X2
|-----------------------------------------------------------|
|-----------------------------------------------------------|
|-----------------------------------------------------------|

Prett much the main riff, pair it with the chord tab on this site and you pretty much 
the song. There might be an occasional
|-------------------|
|0-1-0-1-0-1-0------| *all slightly palm muted
|0-0-0-0-0-0-0------|
|-------------------|
|-------------------|
|-------------------|
 thrown in there but that's about it.  I just did this for the hell of it and cause 
is alot of people like me who just need some help getting started with a song. Thanks, rate, 
and i'm open to suggestions.
Tap to rate this tab
# A B C D E F G H I J K L M N O P Q R S T U V W X Y Z