Song name
# A B C D E F G H I J K L M N O P Q R S T U V W X Y Z

Jack Johnson - They Do They Dont tab

Help us improve GuitareTab! Take a short survey!
Jack Johnson – They Do, They Don’t
From: Sleep Through the Static
Tab: Kevin Sloan


Intro

   Ab              G                Cm
E -------------------------------------3-------3---|
B -----4-------4-------3-------3-----4---4---4---4-|
G ---5---5---5---5---4---4---4---4-5-------5-------|
D -6-------6-------5-------5-----------------------|
A -------------------------------------------------|
E -------------------------------------------------|

  Fm                 Bb          A
-------8--------8-------------------------|
-----9---9----9---9-----6-----------------|
-/10-------10---------7---7---7---6-------|
--------------------8-------8---7---------|
------------------------------------------|
------------------------------------------|

Chorus (the chorus changes slightly throughout the song but just alternates between Ab 
Bb, the tab below is how he plays the first chorus.)

   Ab                                Bb
E -4-4--xx--4/6—4/6--4-4-4-4--6-6-xx--6/8-6/8-6-6-6-6--|
B -4-4--xx--4/6—4/6--4-4-4-4--6-6-xx--6/8-6/8-6-6-6-6--|
G -5-5--xx--5/7—5/7--5-5-5-5--7-7-xx--7/9-7/9-7-7-7-7--|
D -6-6--xx-----------6-6-6-6--8-8-xx----------8-8-8-8--|
A -6-6--xx-----------6-6-6-6--8-8-xx----------8-8-8-8--|
E -4-4--xx-----------4-4-4-4--6-6-xx----------6-6-6-6--|

But we’re the ones to blame…


Second Verse (this time he just strikes each chord once and then throws in a few random 
within them, you can just listen to the CD to get pretty close. Try to put more emphasis 
the higher strings.)

        Ab  G   Cm  Fm  Bb      A
E ---4---3---3---8---6---5---------------------------------|
B ---4---3---4---9---6---5---------------------------------|
G ---5---4---5---10--7---6---------------------------------|
D ---6---5---5---10--8---7---------------------------------|
A ---6---5---3---8---8---7---------------------------------|
E ---4---3-----------6---5---------------------------------|

Another Chorus

Last Verse (he only plays two notes but it’s the same pattern)

E ---------------------------------------------|
B ---------------------------4---4---4---4-----|
G ---5---5---5 --4---4---4-5---5---5---5-------|
D -6---6---6---5---5---5-----------------------|
A ---------------------------------------------|
E ---------------------------------------------|

----------------------------------------|
-----9----9----9----9-------------------|
-/10---10---10---10-----7---7---7---6---|
----------------------8---8---8---7-----|
----------------------------------------|
----------------------------------------|

Another Chorus (keep playing until end)


Thanks, email me with questions or comments @ recklessmeaning@hotmail.com


Kevin
Related for They Do They Dont tab