Guitaretab - guitar tabs
Song name
# A B C D E F G H I J K L M N O P Q R S T U V W X Y Z

Jack Johnson - Same Girl tab

-------------------------------------------------------------------------------
			     SAME GIRL - Jack Johnson
-------------------------------------------------------------------------------
Tabbed by: Terry Long
Email: mrmaestro1 'at' gmail.com

Tuning: Standard
Tempo: 125 bpm
Time Signature: 4/4

Finger-picking acoustic

INTRO - Swing eighths

    Gdim                F#dim               G
    E E E Q   E E E     E E E Q   E E E     E E E Q   E E E    (E)E E Q   E E E
e|--------3-------3--|--------2-------3--|--------3-------3--|-(3)----3-------3--|
B|----2-------2------|----1-------1------|----0-------0------|----0-------0------|
G|--3---3-------3----|--2---2-------2----|------0-------0----|------0-------0----|
D|-------------------|-------------------|-------------------|-------------------|
A|-------------------|-------------------|-------------------|-------------------|
E|-------------------|-------------------|--3----------------|-------------------|

                                                                  Straight eighths
    Gdim                F#dim               G                             v v v
    E E E Q   E E E     E E E Q   E E E     E E E Q   E E E    (E)E E Q   E E E
e|--------3-------3--|--------2-------3--|--------3-------3--|-(3)----3-------3--|
B|----2-------2------|----1-------1------|----0-------0------|----0-------0------|
G|--3---3-------3----|--2---2-------2----|------0-------0----|------0-------0----|
D|-------------------|-------------------|-------------------|-------------------|
A|-------------------|-------------------|-------------------|-------------------|
E|-------------------|-------------------|--3----------------|-------------------|
    Hmmm...    Hmm Hmm  Hmmm...   Hmm Hmm   Hmmm...


VERSE 1 - Straight eighths
   If you could read my mind
   Youíd say "baby youíre right 
   And I donít wanna fight anymore"
   Youíre usually righter than I am
   And Iím not a very good fighter
   Am I? No neither are you
   So letís be through with this one
   Because some things never change

    G                   Am7       D7sus4    G                   Am7     D7sus4
    E E E Q   E E E     E E E E E E E E     E E E Q   E E E     E E E E E E E E
e|--------3-------0--|--------0-------3--|--------3-------0--|--------0-------3--|
B|----0-------0------|----1-------1------|----0-------0------|----1-------1------|
G|------0-------0----|------0-------0----|------0-------0----|------0-------0----|
D|-------------------|----------0--------|-------------------|----------0--------|
A|-------------------|--0----------------|-------------------|--0----------------|
E|--3----------------|-------------------|--3----------------|-------------------|
     If you could...

    G                   Am7     D7sus4      G                   Am7     D7sus4
    E E E Q   E E E     E E E E E E E E     E E E Q   E E E     E E E E E E E E
e|--------3-------0--|--------0-------3--|--------3-------0--|--------0-------3--|
B|----0-------0------|----1-------1------|----0-------0------|----1-------1------|
G|------0-------0----|------0-------0----|------0-------0----|------0-------0----|
D|-------------------|----------0--------|-------------------|----------0--------|
A|-------------------|--0----------------|-------------------|--0----------------|
E|--3----------------|-------------------|--3----------------|-------------------|
           You're usually...

    G                   Am7     D7sus4      G                   Em          Em/D
    E E E Q   E E E     E E E E E E E E     E E E Q   E E E     E E E Q   E E E
e|--------3-------0--|--------0-------3--|--------3-------0--|--------0-------0--|
B|----0-------0------|----1-------1------|----0-------0------|----0-------0------|
G|------0-------0----|------0-------0----|------0-------0----|------0------------|
D|-------------------|----------0--------|-------------------|--------------0----|
A|-------------------|--0----------------|-------------------|-------------------|
E|--3----------------|-------------------|--3----------------|--0----------------|
                              So let's be...

    C
    E E E Q   E E E
e|--------0-------0--|
B|----1-------1------|
G|------0-------0----|
D|-------------------|
A|--3----------------|
E|-------------------|


CHORUS
   I know youíre still my same girl
   Who builds her own frames
   For the pictures that she paints
   Of the lights in Monterey
   Coming across the bay
   Right back to my same girl

    D7      D7sus4      G                   Am7     D7sus4
    E E E Q   E E E     E E E Q   E E E     E E E E E E E E
e|--------2-------3--|--------3-------0--|--------0-------3--|
B|----1-------1------|----0-------0------|----1-------1------|
G|------2-------0----|------0-------0----|------0-------0----|
D|--0----------------|-------------------|----------0--------|
A|-------------------|-------------------|--0----------------|
E|-------------------|--3----------------|-------------------|
          I know you're...

    G       G/F#        Em      C/D         C       C/B         Am
    E E E E E E E E     E E E E E E E E     E E E E E E E E     E E E Q   E E E
e|--------3-------3--|--------0-------0--|--------0-------0--|--------0-------0--|
B|----0-------0------|----0-------1------|----1-------1------|----1-------1------|
G|------0-------0----|------0-------0----|------0-------0----|------2-------0----|
D|-------------------|----------0--------|-------------------|-------------------|
A|-------------------|-------------------|--3-------2--------|--0----------------|
E|--3-------2--------|--0----------------|-------------------|-------------------|
      Who builds...
[ Tab from: http://www.guitaretab.com/j/jack-johnson/103978.html ]
    G                   Am7     D7sus4      G
    E E E Q   E E E     E E E E E E E E     E E E Q   E E E    (E)E E Q   E E E
e|--------3-------0--|--------0-------3--|--------3-------3--|-(3)----3-------3--|
B|----0-------0------|----1-------1------|----0-------0------|----0-------0------|
G|------0-------0----|------0-------0----|------0-------0----|------0-------0----|
D|-------------------|----------0--------|-------------------|-------------------|
A|-------------------|--0----------------|-------------------|-------------------|
E|--3----------------|-------------------|--3----------------|-------------------|
    same  girl              Hmm.. Hm  Hmm...

    Gdim                F#dim               G
    E E E Q   E E E     E E E Q   E E E     E E E Q   E E E    (E)E E Q   E E E
e|--------3-------3--|--------2-------3--|--------3-------3--|-(3)----3-------3--|
B|----2-------2------|----1-------1------|----0-------0------|----0-------0------|
G|--3---3-------3----|--2---2-------0----|------0-------0----|------0-------0----|
D|-------------------|-------------------|-------------------|-------------------|
A|-------------------|-------------------|-------------------|-------------------|
E|-------------------|-------------------|--3----------------|-------------------|
    Hmmm...    Hmm Hmm  Hmmm...   Hmm Hmm   Hmmm...


 VERSE 2
   How can you be so calm
   When the truth is sometimes
   We live in the eye of the storm
   With everything going on around us
   I feel comfort in the sounds when you say
   It will be ok
   Like a star guiding me
   To the light of the day
   The doldrums could follow me

    G                   Am7     D7sus4      G                   Am7     D7sus4
    E E E Q   E E E     E E E E E E E E     E E E Q   E E E     E E E E E E E E
e|--------3-------0--|--------0-------3--|--------3-------0--|--------0-------3--|
B|----0-------0------|----1-------1------|----0-------0------|----1-------1------|
G|------0-------0----|------0-------0----|------0-------0----|------0-------0----|
D|-------------------|----------0--------|-------------------|----------0--------|
A|-------------------|--0----------------|-------------------|--0----------------|
E|--3----------------|-------------------|--3----------------|-------------------|
      How can you...

    G                   Am7     D7sus4      G                   Em
    E E E Q   E E E     E E E E E E E E     E E E Q   E E E     E E E Q   E E E
e|--------3-------0--|--------0-------3--|--------3-------3--|--------3-------3--|
B|----0-------0------|----1-------1------|----0-------0------|----0-------0------|
G|------0-------0----|------0-------0----|------0-------0----|------0-------0----|
D|-------------------|----------0--------|-------------------|-------------------|
A|-------------------|--0----------------|-------------------|-------------------|
E|--3----------------|-------------------|--3----------------|--0----------------|
     With everything...

    G                   Em                  C
    E E E Q   E E E     E E E Q   E E E     E E E Q   E E E
e|--------3-------3--|--------3-------0--|--------0-------0--|
B|----0-------0------|----0-------0------|----1-------1------|
G|------0-------0----|------0-------0----|------0-------0----|
D|-------------------|-------------------|-------------------|
A|-------------------|-------------------|--3----------------|
E|--3----------------|--0----------------|-------------------|
    Like a star...

CHORUS
   But not with my same girl
   Who builds her own frames
   For the pictures that she paints
   Of the lights in Monterey
   Coming across the bay
   Right back to my same girl

    D7      D7sus4      G                   Am7     D7sus4
    E E E Q   E E E     E E E Q   E E E     E E E E E E E E
e|--------2-------3--|--------3-------0--|--------0-------3--|
B|----1-------1------|----0-------0------|----1-------1------|
G|------2-------0----|------0-------0----|------0-------0----|
D|--0----------------|-------------------|----------0--------|
A|-------------------|-------------------|--0----------------|
E|-------------------|--3----------------|-------------------|
          But not with...

    G       G/F#        Em      C/D         C       C/B         Am
    E E E E E E E E     E E E E E E E E     E E E E E E E E     E E E Q   E E E
e|--------3-------3--|--------0-------0--|--------0-------0--|--------0-------0--|
B|----0-------0------|----0-------1------|----1-------1------|----1-------1------|
G|------0-------0----|------0-------0----|------0-------0----|------2-------0----|
D|-------------------|----------0--------|-------------------|-------------------|
A|-------------------|-------------------|--3-------2--------|--0----------------|
E|--3-------2--------|--0----------------|-------------------|-------------------|
      Built her own...

    G                   Am7     D7sus4      G
    E E E Q   E E E     E E E E E E E E     E E E Q   E E E    (E)E E Q   E E E
e|--------3-------0--|--------0-------3--|--------3-------3--|-(3)----3-------0--|
B|----0-------0------|----1-------1------|----0-------0------|----0-------0------|
G|------0-------0----|------0-------0----|------0-------0----|------0-------0----|
D|-------------------|----------0--------|-------------------|-------------------|
A|-------------------|--0----------------|-------------------|-------------------|
E|--3----------------|-------------------|--3----------------|-------------------|
    Same  girl              Hmm.. Hm   Hmm...

    Gdim                F#dim               G
    E E E Q   E E E     E E E Q   E E E     E E E Q   E E E    (E)E E Q   E E E
e|--------3-------3--|--------2-------3--|--------3-------3--|-(3)----3-------3--|
B|----2-------2------|----1-------1------|----0-------0------|----0-------0------|
G|--3---3-------3----|--2---2-------0----|------0-------0----|------0-------0----|
D|-------------------|-------------------|-------------------|-------------------|
A|-------------------|-------------------|-------------------|-------------------|
E|-------------------|-------------------|--3----------------|-------------------|
    Hmmm...    Hmm Hmm  Hmmm...   Hmm Hmm   Hmmm...

    Gdim                F#dim               G
    E E E Q   E E E     E E E Q   E E E     W
e|--------3-------3--|--------2----/3-3--|--3----------------|
B|----2-------2------|----1-------1------|--0----------------|
G|--3---3-------3----|--2---2-------0----|--0----------------|
D|-------------------|-------------------|-------------------|
A|-------------------|-------------------|-------------------|
E|-------------------|-------------------|--3----------------|
    Hmmm...    Hmm Hmm  Hmmm...   Hmm Hmm   Hmmm...


Rhythms:
| E   = 8th note
| Q   = Quarter note
| H   = Half note
| W   = Whole note
| ( ) = Rest or tied note
===============================================================================
Related for Same Girl tab