Song name
# A B C D E F G H I J K L M N O P Q R S T U V W X Y Z

Jack Johnson - Middle Man tab

Jack Johnson
Middle Man [Brushfire Fairytales]
Outro

Right this tab is very similar to everyone else's I just think that there are a few bits
they miss out or there are parts which are harder than necessary etc. So this is the way
I play it.

Standard Tuning
h = hammer
p = pull off
\ = slide down
X = mute the string

E------------------------------------------------------------------------|
B------------------------------------------------------------------------|
G------------------------------------------------------------------------|
D------------------------7-7-7p5---5-7-7-7p5-----------------------------|
A-7-7-7p5---5-7-7-7p5------------7-----------7----7-7-7p5---5-7-7-7p5----|
E---------7-----------7-----------------------------------7-----------7--|

E-----------------------|
B-----------------------|
G-----------------------|
D-7777-5555-------------|
A-----------7777-55-66--|
E-----------------------|

And then back to this...

E------------------------------------------------------------------------|
B------------------------------------------------------------------------|
G------------------------------------------------------------------------|
D------------------------7-7-7p5---5-7-7-7p5-----------------------------|
A-7-7-7p5---5-7-7-7p5------------7-----------7----7-7-7p5---5-7-7-7p5----|
E---------7-----------7-----------------------------------7-----------7--|

E--------------------------X--|
B--------------------------X--|
G--------------------------X--|
D-7777-5555----------------X--|
A-----------7777-55-66-7\1-X--|
E--------------------------X--|

Like I said not very different to everyone else's but its easier to look at and then
play I think, experiment with different ways of playing it, like picking the strings
and moving your fingers, using hammers, pull offs etc, be creative and plase rate it
Enjoy.
Tap to rate this tab
 
# A B C D E F G H I J K L M N O P Q R S T U V W X Y Z