Song name
# A B C D E F G H I J K L M N O P Q R S T U V W X Y Z

Jack Johnson - Cupid tab

Cupid Tab - Jack Johnson

This is right. There was one that said it was perfect...and it lied.
So this one is perfect. Love Jack... ;)

Intro - No singing

-5-5-5---5-5-5---0-0-0---2-2-2---5-5-5---5-5-5---0-0-0---2-2-2--------|
-5-5-5---5-5-5---0-0-0---2-2-2---5-5-5---5-5-5---0-0-0---2-2-2--------|
-6-6-6---5-5-5---1-1-1---2-2-2---6-6-6---5-5-5---1-1-1---2-2-2--------|
-7-7-7---6-6-6---2-2-2---4-4-4---7-7-7---6-6-6---2-2-2---4-4-4--------|
-7-7-7---7-7-7---2-2-2---4-4-4---7-7-7---7-7-7---2-2-2---4-4-4--------|
-5-5-5---5-5-5---0-0-0---2-2-2---5-5-5---5-5-5---0-0-0---2-2-2--------|

Verse 1 (Rhythm is the same, but the chords are moved to fit with the lyrics)

How many times must we go through this? You'll always be my woman I thought you knew this
-5-5-5-----5-5-5----0-0-0---2-2-2--------5---5---5-----5-5-5--------0-0-0----------2-2-2--|
-5-5-5-----5-5-5----0-0-0---2-2-2--------5---5---5-----5-5-5--------0-0-0----------2-2-2--|
-6-6-6-----5-5-5----1-1-1---2-2-2--------6---6---6-----5-5-5--------1-1-1----------2-2-2--|
-7-7-7-----6-6-6----2-2-2---4-4-4--------7---7---7-----6-6-6--------2-2-2----------4-4-4--|
-7-7-7-----7-7-7----2-2-2---4-4-4--------7---7---7-----7-7-7--------2-2-2----------4-4-4--|
-5-5-5-----5-5-5----0-0-0---2-2-2--------5---5---5-----5-5-5--------0-0-0----------2-2-2--|


How many times must we go through this? You'll always be mine, Cupid only misses
-5-5-5-----5-5-5----0-0-0---2-2-2--------5---5---5-----5-5-5---0-0-0------2-2-2--|
-5-5-5-----5-5-5----0-0-0---2-2-2--------5---5---5-----5-5-5---0-0-0------2-2-2--|
-6-6-6-----5-5-5----1-1-1---2-2-2--------6---6---6-----5-5-5---1-1-1------2-2-2--|
-7-7-7-----6-6-6----2-2-2---4-4-4--------7---7---7-----6-6-6---2-2-2------4-4-4--|
-7-7-7-----7-7-7----2-2-2---4-4-4--------7---7---7-----7-7-7---2-2-2------4-4-4--|
-5-5-5-----5-5-5----0-0-0---2-2-2--------5---5---5-----5-5-5---0-0-0------2-2-2--|

Sometimes 		    Mmmmmm

-2-2-2-2-2-2-----0-0-0-0-0-0------5---5--5-5-5---0-0-0---2-2-2-|
-3-3-3-3-3-3-----0-0-0-0-0-0------5---5--5-5-5---0-0-0---2-2-2-|
-4-4-4-4-4-4-----1-1-1-1-1-1------6---5--5-5-5---1-1-1---2-2-2-|
-4-4-4-4-4-4-----2-2-2-2-2-2------7---6--6-6-6---2-2-2---4-4-4-|
-2-2-2-2-2-2-----2-2-2-2-2-2------7---7--7-7-7---2-2-2---4-4-4-|
-2-2-2-2-2-2-----0-0-0-0-0-0------5---5--5-5-5---0-0-0---2-2-2-|

Mmmmmmm

-5---5--5-5-5---0-0-0---2-2-2---|
-5---5--5-5-5---0-0-0---2-2-2---|
-6---5--5-5-5---1-1-1---2-2-2---|
-7---6--6-6-6---2-2-2---4-4-4---|
-7---7--7-7-7---2-2-2---4-4-4---|
-5---5--5-5-5---0-0-0---2-2-2---|

We could end up broken-hearted,   We don't remember why all this started and if

-2-2-2-2-2-2-----0-0-0-0-0-0------5--------5--5-5-5---2-2-2---2-2-2-|
-3-3-3-3-3-3-----0-0-0-0-0-0------5--------5--5-5-5---2-2-2---2-2-2-|
-4-4-4-4-4-4-----1-1-1-1-1-1------6--------5--5-5-5---2-2-2---2-2-2-|
-4-4-4-4-4-4-----2-2-2-2-2-2------7--------6--6-6-6---4-4-4---4-4-4-|
-2-2-2-2-2-2-----2-2-2-2-2-2------7--------7--7-7-7---4-4-4---4-4-4-|
-2-2-2-2-2-2-----0-0-0-0-0-0------5--------5--5-5-5---2-2-2---2-2-2-|

They try to tell you love fades with time tell them  There's no such thing as time

-2-2-2-2-2-2--------------0-0-0-0-0-0-----------------5--------5--5-5-5---2-2-2---2-2-2-|
-3-3-3-3-3-3--------------0-0-0-0-0-0-----------------5--------5--5-5-5---2-2-2---2-2-2-|
-4-4-4-4-4-4--------------1-1-1-1-1-1-----------------6--------5--5-5-5---2-2-2---2-2-2-|
-4-4-4-4-4-4--------------2-2-2-2-2-2-----------------7--------6--6-6-6---4-4-4---4-4-4-|
-2-2-2-2-2-2--------------2-2-2-2-2-2-----------------7--------7--7-7-7---4-4-4---4-4-4-|
-2-2-2-2-2-2--------------0-0-0-0-0-0-----------------5--------5--5-5-5---2-2-2---2-2-2-|


It's our time

-2-2-2-2-2-2-----0-0-0-0-0-0--|
-3-3-3-3-3-3-----0-0-0-0-0-0--|
-4-4-4-4-4-4-----1-1-1-1-1-1--|
-4-4-4-4-4-4-----2-2-2-2-2-2--|
-2-2-2-2-2-2-----2-2-2-2-2-2--|
-2-2-2-2-2-2-----0-0-0-0-0-0--|


It's our time

-5-5-5---5-5-5---0-0-0---2-2-2--|
-5-5-5---5-5-5---0-0-0---2-2-2--|
-6-6-6---5-5-5---1-1-1---2-2-2--|
-7-7-7---6-6-6---2-2-2---4-4-4--|
-7-7-7---7-7-7---2-2-2---4-4-4--|
-5-5-5---5-5-5---0-0-0---2-2-2--|

It's our time

-5-5-5---5-5-5---0-0-0---2-2-2--|
-5-5-5---5-5-5---0-0-0---2-2-2--|
-6-6-6---5-5-5---1-1-1---2-2-2--|
-7-7-7---6-6-6---2-2-2---4-4-4--|
-7-7-7---7-7-7---2-2-2---4-4-4--|
-5-5-5---5-5-5---0-0-0---2-2-2--|

It's our time

-5-------------------------------|
-5-------------------------------|
-6-------------------------------|
-7-------------------------------|
-7-------------------------------|
-5-------------------------------|
Let the last A major ring then slide down if you wanna play it just like he does on On & On.
Tap to rate this tab
 
# A B C D E F G H I J K L M N O P Q R S T U V W X Y Z