Song name
# A B C D E F G H I J K L M N O P Q R S T U V W X Y Z

Jack Johnson - Upside Down tab

Jack Johnson - Upside Down
by: gonza
gserradasduarte@hotmail.com

Verses :
                         E                       F#m                      E                       F#m
E|------------0-------------2--------------0-------------2------------------|
B|------------0-------------2--------------0-------------2------------------|
G|------------1-------------2--------------1-------------2------------------|
D|------------2-------------4--------------2-------------4------------------|
A|------------2-------------4--------------2-------------4------------------|
E|------------0-------------2--------------0-------------2------------------|

Chorus :
                         E                       F#m                      A                        B
|-------------0-------------2--------------5-------------7-------------------|
|-------------0-------------2--------------5-------------7-------------------|
|-------------1-------------2--------------6-------------8-------------------|
|-------------2-------------4--------------7-------------9-------------------|
|-------------2-------------4--------------7-------------9-------------------|
|-------------0-------------2--------------5-------------7-------------------|

Bridge :
                G#m              F#m               G#m                F#m                  G#m
|---------4-----------2-----------4-----------2------------4------------------|
|---------4-----------2-----------4-----------2------------4------------------|
|---------4-----------2-----------4-----------2------------4------------------|
|---------6-----------4-----------6-----------4------------6------------------|
|---------6-----------4-----------6-----------4------------6------------------|
|---------4-----------2-----------4-----------2------------4------------------|

Solo :
|------------------------------------------------------------------------------|
|-----0-------0----2-----------------------0-------0---2-----------------------|
|--1------1----------------1--1--------1-------1-------------------------------|
|-----------------------4----------4------------------------4-------2---4---2--|
|---------------------------------------------------------------4--------------|
|------------------------------------------------------------------------------|


The tab is perfect.. play it along with the song and you'll see...
gonza
Tap to rate this tab
# A B C D E F G H I J K L M N O P Q R S T U V W X Y Z