Song name
# A B C D E F G H I J K L M N O P Q R S T U V W X Y Z

Jack Johnson - Talk Of The Town tab

----------------------------------------------------------------------------
	            Talk of the Town (Intro) - Jack Johnson
----------------------------------------------------------------------------
Tabbed by:Andrew (Thanks Andrew for the corrections)
Email:Calvinexp@hotmail

Tuning:Standard 

e|---3---5---7---5---3---5---7---5---3---5---3---0---0h3p0-----------------|
B|------------------------------------------------------------------0------|
G|---4---5---7---5---4---5---7---5---4---5---4---0-------------------------|
D|-------------------------------------------------------------------------|
A|-------------------------------------------------------------------------|
E|-------------------------------------------------------------------------|

e|---------5---------7---5---3---5---3---0h3---5---3---0---0h3p0-----------|
B|-----------------------------------------------------------------0-------|
G|---4/5-------5/7-------5---4---5---4---0h4---5---4---0-------------------|
D|-------------------------------------------------------------------------|
A|-------------------------------------------------------------------------|
E|-------------------------------------------------------------------------|
Tap to rate this tab
 
# A B C D E F G H I J K L M N O P Q R S T U V W X Y Z