Guitaretab - guitar tabs
Song name
# A B C D E F G H I J K L M N O P Q R S T U V W X Y Z

Jack Johnson - Were Going To Be Friends tab

-------------------------------------------------------------------------------
	            We're going to be friends - Jack Johnson
-------------------------------------------------------------------------------

Tabbed by: Josenovo

Tuning: Standard


    D
e|-----------2-------2-------2-------2-------2-------2-------2-------2-------|
B|-------3-------3-------3-------3-------3-------3-------3-------3-----------|
G|---------2-------2-------2-------2-------2-------2-------2-------2---------|
D|-----0-------0-------0-------0-------0-------0-------0-------0-------------|
A|---------------------------------------------------------------------------|
E|---------------------------------------------------------------------------|

       D                               G                 D
e|-----------2-------2-------2-------2-------3-------0-------2-------2-------|
B|-------3-------3-------3-------3-------0-------0-------3-------3-----------|
G|---------2-------2-------2-------2-------0-------0-------2-------2---------|
D|-----0-------0-------0-------0-----------------------0-------0-------------|
A|---------------------------------------------------------------------------|
E|-------------------------------------3-------3-----------------------------|
       Fall is here...                 Brand new shoes...

       A       G        D                  A     G         D
e|-----------0-------0-------2-------2---------0-------0-------2-------2-----|
B|-------2-------0-------3-------3---------2-------0-------3-------3---------|
G|---------2-------0-------2-------2---------2-------0-------2-------2-------|
D|---------------------0-------0-------------------------0-------0-----------|
A|-----0---------------------------------0-----------------------------------|
E|-------------3---------------------------------3---------------------------|
       I can tell...                   Yes I can tell...

       D
e|-----------2-------2-----|
B|-------3-------3---------|
G|---------2-------2-------|
D|-----0-------0-----------|
A|-------------------------|
E|-------------------------|

       D                               G                 D
e|-----------2-------2-------2-------2-------3-------0-------2-------2-------|
B|-------3-------3-------3-------3-------0-------0-------3-------3-----------|
G|---------2-------2-------2-------2-------0-------0-------2-------2---------|
D|-----0-------0-------0-------0-----------------------0-------0-------------|
A|---------------------------------------------------------------------------|
E|-------------------------------------3-------3-----------------------------|
       Walk with me...                 We can rest...

       A       G        D                  A     G         D
e|-----------0-------0-------2-------2---------0-------0-------2-------2-----|
B|-------2-------0-------3-------3---------2-------0-------3-------3---------|
G|---------2-------0-------2-------2---------2-------0-------2-------2-------|
D|---------------------0-------0-------------------------0-------0-----------|
A|-----0---------------------------------0-----------------------------------|
E|-------------3---------------------------------3---------------------------|
       Safely walk...                    We safely walk...

       D
e|-----------2-------2-----|
B|-------3-------3---------|
G|---------2-------2-------|
D|-----0-------0-----------|
A|-------------------------|
E|-------------------------|

       D                               G                 D
e|-----------2-------2-------2-------2-------3-------0-------2-------2-------|
B|-------3-------3-------3-------3-------0-------0-------3-------3-----------|
G|---------2-------2-------2-------2-------0-------0-------2-------2---------|
D|-----0-------0-------0-------0-----------------------0-------0-------------|
A|---------------------------------------------------------------------------|
E|-------------------------------------3-------3-----------------------------|
       Well here we are...             There's dirt...  

       A       G        D                  A     G         D
e|-----------0-------0-------2-------2---------0-------0-------2-------2-----|
B|-------2-------0-------3-------3---------2-------0-------3-------3---------|
G|---------2-------0-------2-------2---------2-------0-------2-------2-------|
D|---------------------0-------0-------------------------0-------0-----------|
A|-----0---------------------------------0-----------------------------------|
E|-------------3---------------------------------3---------------------------|
       We clean up...                    We clean up...

       D
e|-----------2-------2-----|
B|-------3-------3---------|
G|---------2-------2-------|
D|-----0-------0-----------|
A|-------------------------|
E|-------------------------|
[ Tab from: http://www.guitaretab.com/j/jack-johnson/141744.html ]
       D                               G                 D
e|-----------2-------2-------2-------2-------3-------0-------2-------2-------|
B|-------3-------3-------3-------3-------0-------0-------3-------3-----------|
G|---------2-------2-------2-------2-------0-------0-------2-------2---------|
D|-----0-------0-------0-------0-----------------------0-------0-------------|
A|---------------------------------------------------------------------------|
E|-------------------------------------3-------3-----------------------------|
       Numbers letters...              Play time...

       A       G        D                  A     G         D
e|-----------0-------0-------2-------2---------0-------0-------2-------2-----|
B|-------2-------0-------3-------3---------2-------0-------3-------3---------|
G|---------2-------0-------2-------2---------2-------0-------2-------2-------|
D|---------------------0-------0-------------------------0-------0-----------|
A|-----0---------------------------------0-----------------------------------|
E|-------------3---------------------------------3---------------------------|
       The teacher marks...              The teacher marks...

       D
e|-----------2-------2-----|
B|-------3-------3---------|
G|---------2-------2-------|
D|-----0-------0-----------|
A|-------------------------|
E|-------------------------|

       G                 D             G                 D
e|-----------3-------0-------2-------2-------3-------0-------2-------2-------|
B|-------0-------0-------3-------3-------0-------0-------3-------3-----------|
G|---------0-------0-------2-------2-------0-------0-------2-------2---------|
D|---------------------0-------0-----------------------0-------0-------------|
A|---------------------------------------------------------------------------|
E|-----3-------3-----------------------3-------3-----------------------------|
       And we donít notice...          Because we donít...

       E                               G               A
e|-----------0-------0-------0-------0-------3-------0-----------------------|
B|-------0-------0-------0-------0-------0-------0-------2---2---2---2-------|
G|---------1-------1-------1-------1-------0-------0-------2-------2---------|
D|---------------------------------------------------------------------------|
A|-----------------------------------------------------0-------0-------------|
E|-----0-------0-------0-------0-------3-------3-----------------------------|
       And we sit...                   The teacher thinks...

       D                               G                 D
e|-----------2-------2-------2-------2-------3-------0-------2-------2-------|
B|-------3-------3-------3-------3-------0-------0-------3-------3-----------|
G|---------2-------2-------2-------2-------0-------0-------2-------2---------|
D|-----0-------0-------0-------0-----------------------0-------0-------------|
A|---------------------------------------------------------------------------|
E|-------------------------------------3-------3-----------------------------|
       Tonight Iíll dream...           Of the bugs...

       A       G        D                  A     G         D
e|-----------0-------0-------2-------2---------0-------0-------2-------2-----|
B|-------2-------0-------3-------3---------2-------0-------3-------3---------|
G|---------2-------0-------2-------2---------2-------0-------2-------2-------|
D|---------------------0-------0-------------------------0-------0-----------|
A|-----0---------------------------------0-----------------------------------|
E|-------------3---------------------------------3---------------------------|
  That you and I will...                 Because I can tell...

       A       G        D
e|-----------0-------0--2-----|
B|-------2-------0------3-----|
G|---------2-------0----2-----|
D|----------------------0-----|
A|-----0----------------------|
E|-------------3--------------|
       I can tell...    friends


| /  slide up
| \  slide down
| h  hammer-on
| p  pull-off
| ~  vibrato
| +  harmonic
| x  Mute note


-------------------------------------------------------------------------------


Lyrics

Fall is here, hear the yell 
Back to school, ring the bell
Brand new shoes, walking blues
Climb the fence, books and pens
I can tell that we are going to be friends
Yes I can tell that we are going to be friends

Walk with me Suzy Lee
Through the park and by the tree
We can rest upon the ground 
And look at all the bugs weíve found
Safely walk to school without a sound
We safely walk to school without a sound

Well here we are no one else
We walk to school all by ourselves
Thereís dirt on our uniforms 
From chasing all the ants and worms
We clean up and now its time to learn
We clean up and now its time to learn

Numbers letters learn to spell
Nouns and books and show and tell
Play time we will throw the ball
Then back to class through the hall
The teacher marks our height against the wall 
The teacher marks our height against the wall 

And we donít notice any time pass
Because we donít notice anything
And we sit side by side in every class
The teacher thinks that I sound funny
But she likes it when you sing

Tonight Iíll dream in my bed
While silly thoughts run through my head
Of the bugs and alphabet
And when I wake tomorrow Iíll bet
That you and I will walk together again

Because I can tell that we are going to be friends
I can tell that we are going to be friends

(Lyrics from Jack Johnson's official website)


I hope you enjoy it ;)

===============================================================================
Related for Were Going To Be Friends tab