Song name
# A B C D E F G H I J K L M N O P Q R S T U V W X Y Z

Jack Johnson - Enemy tab

-------------------------------------------------------------------------------
			     ENEMY - Jack Johnson
-------------------------------------------------------------------------------
Tabbed by: Jordan Elek
Email: burnincheez@aim.com

Tuning: Drop C (CADGBe)

This tab is based off the video of Jack recording this song, so it's nearly 100% accurate.

Riff1
e|-------------------------------------------------|
B|-------------------------------------------------|
G|-------------------------------------------------|
D|-------------------------------------------------|
A|---8--7-----5-----0-----3-----3-----3-----3------|
C|---5-----5-----5-----0-----0-----0-----0-----0---|

Riff2
e|-----------------------------------------------------------------------|
B|-----------------------------------------------------------------------|
G|-----------------------------------------------------------------------|
D|-----------------------------5-----------5-----------5-----------5-----|
A|---8--7-----5-----0-----5s7--------7-----------7-----------7-----------|
C|---5-----5-----5-----0----------0-----0-----0-----0-----0-----0-----0--|

Riff3
e|-----------------------------------------------------------------------|
B|-----------------------------------------------------------------------|
G|-----------------------------------------------------------5-----------|
D|-----------------------------5-----------5-----------5-----------5-----|
A|---8--7-----5-----0-----5s7--------7-----------7-----------------------|
C|---5-----5-----5-----0----------0-----0-----0-----0-----0-----0-----0--|

Riff4
e|-----------------------------------------------------------------------|
B|-----------------------------------------------------------------------|
G|-----------------------------------------------------------------------|
D|-----------------------------5-----------5-----------------------------|
A|---8--7-----5-----0-----5/7--------7-----------7-----5-----3-----5-----|
C|---5-----5-----5-----0----------0-----0-----0-----0-----0-----0-----0--|

Chorus
e|------------------------------------------------------------------|
B|------------------------------------------------------------------|
G|---3--------3-----2-----0-----------------------------------------|
D|------0-----------------------------------------------------------|
A|---1-----1-----1-----1-----1--7-----8-----5--5--7--8-----7-----5--| -->
C|---------------------------------0-----0-----5--------5-----5-----| -->

e|----------------------------------|
B|----------------------------------|
G|--------------3-----------3-------|
D|--0-----0-----------0-----------0-|
A|-----1-----1-----1-----1-----1----|
C|----------------------------------|

Chorus End Riff
e|----------------------------------------------|
B|----------------------------------------------|
G|----------------------------------------------|
D|-----------2-----------2-----------2----------|
A|-----3-----------3-----------3-----------3----|
C|--0-----0-----0-----0-----0-----0-----0-----0-|


Intro: (Riff1 Riff2 Riff1 Riff3) x2

Verse: (Riff1 Riff3) during lyrics, (Riff1 Riff2) when no lyrics,
       (Riff1 Riff4) immediately before chorus

Chorus: Chorus riff x2, Chorus End Riff

| /  slide up
| \  slide down
| h  hammer-on
| p  pull-off
| ~  vibrato
| +  harmonic
| x  Mute note
===============================================================================
Tap to rate this tab
 
# A B C D E F G H I J K L M N O P Q R S T U V W X Y Z