Song name
# A B C D E F G H I J K L M N O P Q R S T U V W X Y Z

Jack Johnson - Breakdown tab

These are the chords and the strum pattern I use. It's close to the album:
/--------3---------------2----------0------------2------/
/------0---0--0-------3---3--3-----0--0--0------3--0--0-/
/----0-------0-------4-----4------0-----0------2-----0--/
/--0----------------4------------2------------0---------/
          C               Em        Am            G

Solo:
/--3-0--------------/
/------3-----3------/
/--------2s4--4s2-0-/
/-------------------/

/-3-0---------------/
/------3-----3------/
/--------2s4--4-----/
/-------------------/

/-3s5-3-0-7-5-3-----/
/-3s5-3-0-8-5-3-----/
/-------------------/
/-------------------/

/-3s5-3-0-7-5-------/
/-3s5-3-0-8-5-------/
/-------------------/
/-------------------/

/-3s5-3-0-10--8--7--/
/-3s5-3-0-12-10-8---/
/-------------------/
/-------------------/

/-3s5-3-0-7-5-3-----/
/-3s5-3-0-8-5-3-----/
/-------------------/
/-------------------/
Tap to rate this tab
# A B C D E F G H I J K L M N O P Q R S T U V W X Y Z