Song name
# A B C D E F G H I J K L M N O P Q R S T U V W X Y Z

Jack Johnson - If I Could tab

these are the main riffs that go on throughout the song

e---------------------------------|
B---------------------------------|
G---------------------------------|
D---------------------------7-----|
A-0-0-0-4/7-7-7-7-------4/9---9---|
E-----------------2-2-2---------7-|

e-------------------------------------|
B-------------------------------------|
G-------------------------------------|
D-------------------------------------|
A-0-0-0-4/7-7-7-7-------4/10-10-10-10-|
E-----------------2-2-2---------------|
Tap to rate this tab
 
# A B C D E F G H I J K L M N O P Q R S T U V W X Y Z