Song name
# A B C D E F G H I J K L M N O P Q R S T U V W X Y Z

Jack Johnson - You And Your Heart tab

-------------------------------------------------------------------------------
			     YOU AND YOUR HEART - Jack Johnson
-------------------------------------------------------------------------------
Tabbed by: chucky176
Email: torge.santjer@gmail.com

Tuning: Standard (EADGBe)


Intro / Verse

e|----------------------------------------------------------------------------|
B|----------------------------------------------------------------------------|
G|----------------------------------------------------------------------------|
D|-10-10-10-10-10-10--8-6--4-4-4-4-4-4--6-8-------------3-4-3-----------3-4-3-|
A|-------------------------------------------4-4-4-4-4--------4-4-4-4-4-------|
E|----------------------------------------------------------------------------|


Refrain / Chorus

e|-2----4----4----2--------2----4----4----2-----------------------------------|
B|-2----4----6----2--------2----4----6----2-----------------------------------|
G|-3----5----6----3--------3----5----6----3-----------------------------------|
D|-4----6----6----4------3-4----6----6----4--5--------------------------------|
A|-4----6----4----4------3-4----6----4----4--5--------------------------------|
E|-2----4----x----2------1-2----4----x----2--3--------------------------------|


Solo

e|----------------------------------------------------------------------------|
B|----------------------------------------------------------------------------|
G|---------------------------------------------------------------------8------|
D|-------10------------------just repeat that till this chord comes----8------|
A|-11-11----11----------8-9--------------------------------------------6------|
E|----------------9-9-9------------------------------------------------x------|


Outro

e|----------------------------------------------------------------------------|
B|----------------------------------------------------------------------------|
G|-8--------------------------------------------------------------------------|
D|-8----6---------------------------------------------------------------------|
A|-6----6---------------------------------------------------------------------|
E|-x----4---------------------------------------------------------------------|
Tap to rate this tab
# A B C D E F G H I J K L M N O P Q R S T U V W X Y Z