Song name
# A B C D E F G H I J K L M N O P Q R S T U V W X Y Z

Jack Johnson - You And Your Heart tab

my first tab
submitted by: bhouse08

e|-----------------------------------------------------------|
b|-----------------------------------------------------------|
g|-----------------------------------------------------------|
d|-12-12-12--12-12-12-9--------------------------------------|
a|----------------------12-9-9-9--9-9-9-12-9-----------9-10-9|
e|-------------------------------------------9-9-9--9-9------|

e|------------------|
b|------------------|
g|------------------|
d|------------------|
a|------------9-10-9|
e|-9-9-9--9-9-------|
Tap to rate this tab
# A B C D E F G H I J K L M N O P Q R S T U V W X Y Z