Song name
# A B C D E F G H I J K L M N O P Q R S T U V W X Y Z

Jack Johnson - If I Could tab

Tabbed this off the of the "A Weekend at the Greek" DVD. He uses a capo on the 2nd fret 
this video, but on the recorded album he does not use a capo. Listen for the timing. Enjoy.


First Verse: A B A B A B A A A B A
Second Verse: A B A B A B A B A B A

Part A
e |-------------------------------------|
b |-------------------------------------|
g |-------------------------------------|
d |-------------------------------7-----|
a |----4---4/7--7---0----4---4/9----9-7-|
e |--5---5--------0----2---2------------|

Part B
e |-------------------------------------|
b |-------------------------------------|
g |-------------------------------------|
d |-------------------------------------|
a |----4---4/7--7---0----4---4/9--9---0-|
e |--5---5--------0----2---2--------7---|

Riff into Chorus
e |----------------|
b |----------------|
g |----------------|
d |--------6-------|
a |----7-------7---|
e |--0---0-------0-|

Chorus x4
e |------------------------------------------|
b |------------------------------------------|
g |------------------------------------------|
d |----9/11-------------------------11----11-|
a |--0---------12---------9---9/12-----12----|
e |-----------------10\7----7----------------|

Tab By: Garret Schultz
Tap to rate this tab
 
# A B C D E F G H I J K L M N O P Q R S T U V W X Y Z