Song name
# A B C D E F G H I J K L M N O P Q R S T U V W X Y Z

Jack Johnson - You And Your Heart tab

Pretty much 100% sure this is right. I will hopefully try to tab out the chords eventually.

|----------------------------------------------------------------------|
|----------------------------------------------------------------------|
|----------------------------------------------------------------------|
|--11-11-11-11-11-11-9-------------------------9-----------------------|
|----------------------12-10-10-10-10-10-10-12------------------9-10-9-|
|------------------------------------------------10-10-10-10-10--------|

|------------------------|
|------------------------|
|------------------------|
|------------------------|
|-----------------9-10-9-|
|--10-10-10-10-10--------|
Tap to rate this tab
# A B C D E F G H I J K L M N O P Q R S T U V W X Y Z