Song name
# A B C D E F G H I J K L M N O P Q R S T U V W X Y Z

Jack Johnson - Situations tab

Artist: Jack Johnson
Song: Situations
Album: In Between Dreams
tabbed by: necriononguitar
e-mail (NO SPAM!): tim.rathgen@gmx.de

REAL FANS SUPPORT BANDS BY PURCHASING THEIR CDS!!!


. = Palm-Muted
~ = hold note
^ = vibrate
p = pull off
h = hammer on
/ = slide up
\ = slide down


Tuning: Half-Step Down


Now I know there are already a few versions out there but their all, well 4*... So i 
since this is a short song, id take a look at it.
The song actually is very similar to Taylor (On&On)and im 100% sure these are the chords 
tuning jack uses in the song. The strumming is easy enough to listen from the track!


"""Intro/Verse"""   (Intro With Fade In)

>>PALM-MUTE EVERYTHING<<

The Chords:
     C     Am     F      G
E---------------------------------|
B---------------------------------|
G----0-----2------2------4--------|
D----2-----2------3------5--------|
A----3-----0------3------5--------|
E----------------(1)----(3)-------|

Heres the strumming:     (PM!)               d = down             u = up
    C                                     Am
E----------------------------------------------------------------------------|
B----------------------------------------------------------------------------|
G---0---0-0-x-x-x---0---0---0-x--0-0-0----2---2-2-x-x-x---2---2---2-x--0-0-0-|
D---2---2-2-x-x-x---2---2---2-x--0-0-0----2---2-2-x-x-x---2---2---2-x--0-0-0-|
A---3---3-3-x-x-x---3---3---3-x--0-0-0----0---0-0-x-x-x---0---0---0-x--0-0-0-|
E----------------------------------------------------------------------------|
    d   d u d u d   u   u   u d  u d u    d   d u d u d   u   u   u d  u d u


     F                                    G                F
E-----------------------------------------------------------------------------|
B-----------------------------------------------------------------------------|
G----2---2-2-x-x-x---2---2---2-x--2-2-2-2/4---4-4-x--4-4---2---2---2-x--0-0-0-|
D----3---3-3-x-x-x---3---3---3-x--3-3-3-3/5---5-5-x--5-5---3---3---3-x--0-0-0-|
A----3---3-3-x-x-x---3---3---3-x--3-3-3-3/5---5-5-x--5-5---3---3---3-x--0-0-0-|
E----1---1-1-x-x-x---1---1---1-x--1-1-1-1-3---3-3-x--3-3---1---1---1-x--------|
     d   d u d u d   u   u   u d  u d u d     d u d  u d   u   u   u d  u d u

"""Outro"""    0:51
Guitar 1    (PM!)

    C                       A(m)       G                                F
E---------------------------------------------------------------------------|
B---------------------------------------------------------------------------|
G---5---5-5-x-x-x---5---5/--14-14-14---12---12-12-x-x-x---12---12--(12)-10--|
D---5---5-5-x-x-x---5---5/--14-14-14---12---12-12-x-x-x---12---12--(12)-10--|
A---3---3-3-x-x-x---3---3/--12-12-12---10---10-10-x-x-x---10---10--(10)-8---|
E---------------------------------------------------------------------------|
    d   d u d u d   u   u   d  u  d    d    d  u  d u d   u    u   (u)  d

       D                           C       G
E-----------------------------------------------------------------------------|
B-----------------------------------------------------------------------------|
G--x-x-7---7-7-x-x-x---7---7---(7)-5--x-x--4---4-4-x-x-x---4---4---4-x--4-4-4-|
D--x-x-7---7-7-x-x-x---7---7---(7)-5--x-x--5---5-5-x-x-x---5---5---5-x--5-5-5-|
A--x-x-5---5-5-x-x-x---5---5---(5)-3--x-x--5---5-5-x-x-x---5---5---5-x--5-5-5-|
E------------------------------------------3---3-3-x-x-x---3---3---3-x--3-3-3-|
   d u d   d u d u d   u   u    u  d  d u  d   d u d u d   u   u   u d  u d u

Guitar 2    (Use Fingers)
    C         A(m)   G          F     D        C     G       G
E--------------------------------------------------------------------|
B---5~--------10~----8~---------6~----3~-------1~----3~------5~------|
G--------------------------------------------------------------------|
D--------------------------------------------------------------------|
A---3~--------8~-----7~---------5~----1~-------0~----1~------3~------|
E--------------------------------------------------------------------|

and well, thats it!  I hope this helped, although prob not many will see it...
But whatever, please rate, comment, correct me!

Cheers...
Tap to rate this tab
 
# A B C D E F G H I J K L M N O P Q R S T U V W X Y Z