Song name
# A B C D E F G H I J K L M N O P Q R S T U V W X Y Z

Jack Johnson - You And Your Heart tab

-----------------------------------------------------------------------------
			                    YOU AND YOUR HEART - Jack Johnson
-----------------------------------------------------------------------------
Tabbed by: ezgreendayfan	
Email: ezepeda96@gmail.com	

Tuning: eadgbe

On the Intro just deaden strings with all fingers on 
7th 8th and 9th frets.

Song order:
Intro
Riff 1 (5 Times)
Chorus (2 Times)
After "feel so hard"
Riff 1 (4 Times)
Chorus (2 Times)
Chrous Riff (2 Times)
Riff 2 (4 Times)
Riff 2 (4 Times)
Riff 2 (4 Times)
End on 344533


Riff 1
e|---------------------------------------------------------------------------|
B|---------------------------------------------------------------------------|
G|---------------------------------------------------------------------------|
D|-11-11-11--11-1111-9-7--5-5-5-55-55-79------------454----------------------|
A|---------------------------------------5-5-5-5-5---------------------------|
E|---------------------------------------------------------------------------|

e|-3---5---5---3-------------------------------------------------------------|
B|-3---5---5---3-------------------------------------------------------------|
G|-5---6---7---5-------------------------------------------------------------|
D|-4---7---7---5-------------------------------------------------------------|
A|-4---7---5---3-------------------------------------------------------------|
E|-3---5---X---X-------------------------------------------------------------|

after "feel so hard"
e|---------------------------------------------------------------------------|
B|---------------------------------------------------------------------------|
G|---------------------------------------------------------------------------|
D|-44445555--(Repeat Rift 1)-------------------------------------------------|
A|---------------------------------------------------------------------------|
E|---------------------------------------------------------------------------|


e|---------------------------------------------------------------------------|
B|-------------------------5-------------------------------------------------|
G|----4------6------7-------5-5----------------------------------------------|
D|---5-5----7-7----7-7----5--5-5---------------------------------------------|
A|--5------7------5------3---------------------------------------------------|
E|---------------------------------------------------------------------------|

Riff 2
e|---------------------------------------------------------------------------|
B|---------------------------------------------------------------------------|
G|---------------------------------------------------------------------------|
D|-7-71111-----45------------------------------------------------------------|
A|---------5-55--------------------------------------------------------------|
E|---------------------------------------------------------------------------|



************************************
************************************
Tap to rate this tab
# A B C D E F G H I J K L M N O P Q R S T U V W X Y Z