Song name
# A B C D E F G H I J K L M N O P Q R S T U V W X Y Z

Jack Johnson - From The Clouds tab

Artist: Jack Johnson
Song: From The Clouds
Album: To The Sea (2010)
tabbed by: necriononguitar
e-mail (NO SPAM!): tim.rathgen@gmx.de

REAL FANS SUPPORT BANDS BY PURCHASING THEIR CD'S!!!


. = Palm-Muted
~ = hold note
^ = vibrate
p = pull off
h = hammer on
/ = slide up
\ = slide down


Tuning: Standard


Intro is taken from the Rolling Stone recording of Jack recording the Intro
http://www.rollingstone.com/music/news/;kw=[13193,156437]
--> 4th from the top, i guess

"""Intro"""
E----------------------3---3-3/5--5----------|
B----------8--8\3~-----5---5-5/7--7----------|
G----------9--9\4~-----5---5-5/7--7----------|
D--------------------------------------------|
A--------------------------------------------|
E----3---------------------------------------|

E--------------------------------------------------|
B----------8--8\3~---------7~----------------------|
G----------9--9\4~----5/7~------7\5~--(5)\---------|
D--------------------------------------------------|
A--------------------------------------------------|
E----3---------------------------------------------|

E----------------------3---3-3/5--5----------|
B----------8--8\3~-----5---5-5/7--7----------|
G----------9--9\4~-----5---5-5/7--7----------|
D--------------------------------------------|
A--------------------------------------------|
E----3---------------------------------------|

E---------------------------------------|
B----------8--8\3~--------5-------------|
G----------9--9\4~----5-----5-----------|
D-----------------------------7--4------|
A---------------------------------------|
E----3----------------------------------|


"""Verse Part I"""
E--------------------------------------------|
B--------------------------------------------|
G---------4^---------------------------------|
D---5-5------5-------------------5-----------|
A---------------5(^)---3---3-3h5---0---------|
E--------------------------------------------|
    . .      .         .   . . .   .


Well thats it for now... i may be adding the rest of the song since its awesome ;D

Cheers...
Tap to rate this tab
# A B C D E F G H I J K L M N O P Q R S T U V W X Y Z