Song name
# A B C D E F G H I J K L M N O P Q R S T U V W X Y Z

Jack Johnson - You And Your Heart tab

Artist: Jack Johnson
Song: You And Your Heart
Album: To The Sea (2010)
tabbed by: necriononguitar
e-mail (NO SPAM!): tim.rathgen@gmx.de

REAL FANS SUPPORT BANDS BY PURCHASING THEIR CD'S!!!


. = Palm-Muted
~ = hold note
^ = vibrate
p = pull off
h = hammer on
/ = slide up
\ = slide down


Tuning: Standard


Watch this video if u really dont believe me:
http://www.youtube.com/watch?v=S9tfFeIUvLo&translated=1
(From 2:23)


"""Intro/Verse""":                           d = downstroke    u = upstroke
Guitar 2   0:00
E-------x-------------------x-------x--------x-------------------x----------|
B-------x-------x---x-------x-------x--------x-------x---x-------x----x-x---|
G-------x-------x---x-------x-------x--------x-------x---x-------x----x-x---|
D---x---x-------x---x---x---x---------x--x---x-------x---x---x---x----x-x---|
A---x-----------x---x---x-------------x--x-----------x---x---x--------------|
E---x-------------------x-------------x--x-------------------x--------------|
    d   d       u   u   d   d       u d  d   d       u   u   d   d    d u


Guitar 1    0:04
Im not gonna write down all the x's of the notes u mute around the ones u play!
    A                                    G
E-----------------------------------------------------------------------------|
B-----------------------------------------------------------------------------|
G-----------------------------------------------------------------------------|
D---11--11--11---11-11--11----11--9-----------------------------------------9-|
A------------------------------------12---10--10--10---10-10--10----10--12----|
E-----------------------------------------------------------------------------|
    d   d   d    d  u   u     u   d  d    d   d   d    d  u   u     u   d   d

    D                                   D
E---------------------------------------------------------------------------|
B---------------------------------------------------------------------------|
G---------------------------------------------------------------------------|
D---------------------------------------------------------------------------|
A---------------------------9--10--9----------------------------9--10--9----|
E---10--10--10---10-10--10--------------10--10--10---10-10--10--------------|
    d   d   d    d  u   u   u  d   d    d   d   d    d  u   u   u  d   d

"""Chorus"""    0:49
Guitar 1     Acoustic
     G                             A
E----------3-------------3---------------5-------------5-------------|
B----------3-------------3---------------5-------------5-------------|
G----------4--(4)--------4--(4)----------6--(6)--------6--(6)--------|
D---(5)(5)-5---5-5-5-(5)-5---5-5--(7)(7)-7---7-7-7-(7)-7---7-7-------|
A----5--5--5---5-5-5--5--5---5-5---7--7--7---7-7-7--7--7---7-7-------|
E----3--3--3---3-3-3--3--3---3-3---5--5--5---5-5-5--5--5---5-5-------|
     d  d  d   d u d  d  d   d u   d  d  d   d u d  d  d   d u

     D                             G                   G/F#
E----------5-------------5---------------3---------------------|
B----------7--(7)--------7--(7)----------3---------------------|
G---(7)(7)-7---7-7-7-(7)-7---7-7---------4--(4)----------------|
D----7--7--7---7-7-7--7--7---7-7--(5)(5)-5---5-5-5-(5)-4~------|
A----5--5--5---5-5-5--5--5---5-5---5--5--5---5-5-5--5--5~------|
E----------------------------------3--3--3---3-3-3--3--2~------|
     d  d  d   d u d  d  d   d u   d  d  d   d u d  d  d


     G                             A
E----------3-------------3---------------5-------------5-------------|
B----------3-------------3---------------5-------------5-------------|
G----------4--(4)--------4--(4)----------6--(6)--------6--(6)--------|
D---(5)(5)-5---5-5-5-(5)-5---5-5--(7)(7)-7---7-7-7-(7)-7---7-7-------|
A----5--5--5---5-5-5--5--5---5-5---7--7--7---7-7-7--7--7---7-7-------|
E----3--3--3---3-3-3--3--3---3-3---5--5--5---5-5-5--5--5---5-5-------|
     d  d  d   d u d  d  d   d u   d  d  d   d u d  d  d   d u

     D
E----------5-------------5-------------|
B----------7--(7)--------7--(7)--------|
G---(7)(7)-7---7-7-7-(7)-7---7-7-------|
D----7--7--7---7-7-7--7--7---7-7-------|
A----5--5--5---5-5-5--5--5---5-5-------|
E--------------------------------------|
     d  d  d   d u d  d  d   d u


Guitar 2      Electric      starts a lil riff at 1:05
E------------------------------------|
B------------------------------------|
G---12-12-12-12---13-13-13-13--------|
D---x--x--x--x----x--x--x--x---------|
A---10-10-10-10---11-11-11-11--------|
E------------------------------------|


And now the Verse and Chorus are getting repeated, nothing new added!


"""Bridge Interlude Thing"""    2:19
    A            D
E-------------------------------------------------|
B-------------------------------------------------|
G-------------------------------------------------|
D-----------11------------------------------------|  x4
A---12--12----12-------------9--10----------------|
E----------------10--10--10-----------------------|
    d   d   d d  u   u   u   d  d

    E
E---------0-------------0--------------------|
B---------0----(0)------0---(0)--------------|
G---------1---1-1-------1--1-1---------------|
D---2-(2)-2---2-2-2-(2)-2--2-2---------------|  x2
A---2--2--2---2-2-2--2--2--2-2---------------|
E---0--0--0---0-0-0--0--0--0-0---------------|
    d  d  d   d u d  d  d  d u


And the song ends on a A5
E------------|
B------------|
G------------|
D---7~-------|
A---7~-------|
E---5~-------|


And well, thats it! I hope this helped, please rate, comment and correct me!

Cheers...
Tap to rate this tab
# A B C D E F G H I J K L M N O P Q R S T U V W X Y Z