Song name
# A B C D E F G H I J K L M N O P Q R S T U V W X Y Z

Jack Johnson - My Little Girl tab

-------------------------------------------------------------------------------
			   My Little Girl - Jack Johnson
-----------------------------------------------------------------------------

This is 99.999% correct i got this from AOL sessions on youtube

No Capo

Order of song :


Intro --- Verse 1 --- Pre Chorus 1 -- Chorus --- Verse 2 ---
Pre Chorus 2 --- Pre Chorus 1 --- Chorus ---
( instrumental same as verse ) - Chorus

Tuning: Standard

Intro and Verse

(verse1)Hey little girl   .. .  . .  . . . . . good people will say
(verse2) Hey little girl . .. . . . .... . .. . . back on the years

e|-------------------------------------------------Repeat 2X for the intro----|
B|-------------------------------------------------Repeat 2X for the Verse----|
G|---7----------9---------------------------6---------------------------------|
D|---5----------7---------------------------7---------------------------------|
A|---7----------9----------------9----------7---------------------------------|
E|------X--7--X---X--10--X---7-X---X---5--X----X------------------------------|


Pre Chorus 1

Hey little girl look what you've done
e|-------------------------------------------------------------------------|
B|-------------------8-----------------------------------------------------|
G|---------4---------7---------------------ONE TIME------------------------|
D|---------5---------9-----------------------------------------------------|
A|---------5---------7-----------------------------------------------------|
E|-----3-X----X---------X---7----------------------------------------------|

Chorus

youíve stole my heart and made it your own
you stole my heart and made it your own

e|-------------------------------------------------------------------------|
B|-------------------------------------------3-----------------------------|
G|---------------------------------------------4-------------REPEAT--------|
D|-----------------------------------------5-------------------------------|
A|---------9---------------7-------------5---------------------------------|
E|------7-----X--7------5-----X---5--- 3----------X---3--------------------|

Pre Chorus 2  ( Pre Chorus 2 + Pre Chorus 1 )

how can I look you in the eyes and tell you such big lies
the best I can do is try to show you how to love with no fear my little girl

e|----------------------------------------------------------------------------|
B|----------------8-----------------------------------------------------------|
G|---------4------7-----------------7----------6------------------------------|
D|---------5------9-----------------9----------7------------------------------|
A|---------5------7-----------------9----------7------------------------------|
E|-----3-X----X------X--7--X--7--X-----X--5--X----X---------------------------|

e|-------------------------------------------------------------------------|
B|-------------------8-----------------------------------------------------|
G|---------4---------7-----------------------------------------------------|
D|---------5---------9-----------------------------------------------------|
A|---------5---------7-----------------------------------------------------|
E|-----3-X----X---------X---7----------------------------------------------|

Lyrics:

Hey little girl you might not know this song
This is not the kinda song that you could sing along to, but
hey little girl Maybe someday
least thats what all the good people will say
Hey little girl look what you done

youve stole my heart and made it your own
you stole my heart and made it your own


hey little girl black and white and right and wrong
only live inside a song, I will sing to you
you donít ever have to feel lonely
you will never lose any tears
you donít have to feel any sorrow
when you look back on the years

how can I look you in the eyes and tell you such big lies
the best I can do is try to show you how to love with no fear
my little girl

youíve stole my heart and made it your own
you stole my heart and made it your own

youíve stole my heart and made it your own
you stole my heart and made it your own

www.youtube.com/jacecrawford
Tap to rate this tab
# A B C D E F G H I J K L M N O P Q R S T U V W X Y Z