Song name
# A B C D E F G H I J K L M N O P Q R S T U V W X Y Z

Jack Johnson - No Good With Faces chords

Highlighted       Show chord diagrams
Jack Johnson - No Good With Faces

Ok I went through some other versions of this song and they are not very good about 80% accurate.
  
I watched the AOL Sessions video of this on youtube and came up with this tab!

The correct way to play it is to use a capo, but if you don't have a capo the 
chords below will make it sound the EXACT SAME.

WITH CAPO 4

      G     B     Em      C      D
e|----3-----2------0------0------2----------------------------------------|
B|----3-----4------0------1------3----------------------------------------|
G|----0-----4------0------0------2----------------------------------------|
D|----0-----4------2------2------0----------------------------------------|
A|----2-----2------2------3------X----------------------------------------|
E|----3-----X------0------X------X----------------------------------------|

WithOUT Capo

      B     D#    G#m     E      F#
e|----7-----6------4------7------2-----------------------------------------|
B|----7-----8------4------9------2-----------------------------------------|
G|----8-----8------4------9------3-----------------------------------------|
D|----9-----8------6------9------4-----------------------------------------|
A|----9-----6------6------7------4-----------------------------------------|
E|----7-----X------4------X------2-----------------------------------------|


WITH CAPO 4


G - B - Em - C - G - Em - D - C - G - G 
 

G                           B
No good with faces and i'm bad with names

Em                            C
  Gave me directions but its all the same

    G          Em
uh huh  I'm lost
D            C         G
   I'm too tired to try

G                                  B
Street lamps are broken black the way I came

Em                                  C
  Who broke the moonlight watch it wax and wane

    G           Em
uh huh   I'm lost

D           C          G     
   I'm too tired to try


CHORUS


Em              G  
Let's not get ahead of ourselves now
C                     G        
There's no need for rain it's our own parade
Em             G
Let's not be afraid of our reflections
 C                B                     G   
   It's not only you You're looking at now
  


 B - Em - C - G - Em - D - C - G - G

Verse 2

G                                 B
Road signs were stolen Left here holding this flame
Em                       C
   Who stole my patience Who stole my way

    G        Em
Uh huh I'm lost
D          C         G
   I'm too tired to try


CHORUS:


 Em             G
Let's not get ahead of ourselves now
 C                       G                   Em
   There's no need for rain It's our own parade
               G                        C
Let's not be afraid of our reflections
               B                      Em
It's not only you  You're looking at now


                G                    C
Let's not get ahead of ourselves now
                      G                   Em
There's no need for rain It's our own parade
                G                      C
Let's not be afraid of our reflections
              G              Bm       C
It's not only you  You're looking at now
Em                     C   Em                    C   Em                   C
Who you looking at now     Who you looking at now    Who you lookin at now
 

D

G                          B
No good with faces And I'm bad with names
Em                           C
Gave me directions But it's all the same
    G       Em            D       C    G
uh huh I'm lost I'm too tired to try

www.youtube.com/jacecrawford
Tap to rate this tab
# A B C D E F G H I J K L M N O P Q R S T U V W X Y Z