Song name
# A B C D E F G H I J K L M N O P Q R S T U V W X Y Z

Jack Johnson - My Little Girl chords

Highlighted       Show chord diagrams
Jack Johson _ My Little Girl  ( standard tuning _ no capo )

This Version _ ( my 2nd take ) _ is 100% accurate.   


e|-----------------------------------------3--------------------------|
B|-----------------------------------------3--------------------------|
G|----9---------11----------7---------7----4----7---------------------|
D|----9----9----11----12----7----7----7----5----9---------------------|
A|----7----9----9-----12----5----7----4----5----9---------------------|
E|---------7----------10---------5---------3----7---------------------|
      E    B    F#    D     D*   A    C#   G    Bm   (note C# 477 vs 466)

Intro: E - B - F# - D - B - D* - A - C#

Verse: 

           E    B                   F#            D
Hey little girl       you might not know this song

   B      D*                               A               C# 
          This is not the kinda song that you could sing along to but

           E     B                  F#    D
hey little girl           Maybe someday 

   B      D*                             A           C#
          least thats what all the good people will say

CHORUS:
             G                 E
Hey little girl look what you done

                  Bm                A            G
 youve gone and stole my heart and made it your own

     Bm                 A            G
you stole my heart and made it your own




Verse:
           E     B      F#                  D
hey little girl        black and white and right and wrong

B            D*             A           C#
only live inside a song, I will sing to you

           E            B                     F#          D 
you dont ever have to feel lonely, you will never lose any tears
 
           B             D*                  A                 C#
you dont have to feel any sadness when you look back on the years


Pre Chorus/Chorus:

            G                       E 
how can I look you in the eyes and tell you such big lies
   
     Bm                      A                            G
the best I can do is try to show you how to love with no fear
 
          E                       Bm                A            G
my little girl   youve gone and stole my heart and made it your own

     Bm                 A            G
you stole my heart and made it your own

e|----------------------------------------------------------------------|
B|-------------------------------------------------------7--------------|
G|-----------7------9-----7-----------------7----9----------------------|
D|------9------------------------------9--------------------------------|
A|--7------7-----7-------7----------7-----7----7------7-----------------|
E|----------------------------------------------------------------------|


( Sorry I didnít work out the entire solo )  


www.youtube.com/jacecrawford
Tap to rate this tab
 
# A B C D E F G H I J K L M N O P Q R S T U V W X Y Z