Jack Johnson - You And Your Heart Acoustic tab

i was listening to the song and not all the tabs are 100% correct so maybe this will help
shot guys
luke lovemore

chords used:

    G      F     C     F2    E     F#    D
e---3---|--1--|--0--|--0--|--0--|--2--|--2--|
B---0---|--1--|--1--|--1--|--0--|--2--|--3--|
G---0---|--2--|--0--|--2--|--1--|--3--|--2--|
D---0---|--3--|--2--|--3--|--2--|--4--|--0--|
A---2---|--3--|--3--|--0--|--2--|--4--|--x--|
E---3---|--1--|--x--|--x--|--0--|--2--|--x--|

 intro:                     *mute all the other strings
(first part)
e---------------------------------------------------------------------------|
B---------------------------------------------------------------------------|
G---------------------------------------------------------------------------|
D---9-9-9--9-9-9-7---------------------9------------------------------------|
A------------------10-8-8-8--8-8-8--10--------------7-8-7-----------7-8-7---|
E-----------------------------------------8-8-8-8-8-------8-8-8-8-8---------|
    d d d  u u d d  d d d d  u u d   d d  d d d u u d d d d d d u u d d d

(second part)

 G ; F ; C ; F2 ; C ; F2 x2

 verse:

 G ; F ; C ; F2 ; C ; F2 x2

 chorus:

 F ; G ; C ; F ; E ; F ; G ; C ; F ; F#

 interlude:

 G ; F ; C ; F2 ; C ; F2 x2

 verse

 chorus x2

 end:

 G ; C ; G ; C ; G ; C ; G ; C ; D x 3
Tap to rate this tab
 
# A B C D E F G H I J K L M N O P Q R S T U V W X Y Z