Jack Johnson - The Upsetter chords

Highlighted       Show chord diagrams
Jack Johnson - The Upsetter

I haven't seen any tabs of this song, so here's a few various parts
and some chords to get people started.  I'm sure someone will create a
better tab soon, but at least this is something to work with in the
meantime.  I think the song is in the key of C.

During the solo I think there are 2 guitars, likely dubbed in the
studio. The song is mostly piano with Jack playing electric guitar
riffs.  Feel free to comment or work this into a more complete tab.


INTRO/ VERSE

4 MEASURES OF RYTHYM STRUMMING, THEN:

E|---------------------------|
B|---------------------------|
G|---------------------------|
D|--10-x------------9\7------|
A|------ 7-x---/10-------10--|
E|---------------------------|

E|---------------------------|
B|---------------------------|
G|---------------------------|
D|--10-x-----------9--10/12--|
A|-------7-x--/10------------|
E|---------------------------|

E|---------------------------|
B|---------------------------|
G|---------------------------|
D|--10-x------------9\7------|
A|------ 7-x---/10-------10--|
E|---------------------------|

E|---------------------------|
B|---------------------------|
G|---------------------------|
D|--10-x-----------9--10/12--|
A|-------7-x--/10------------|
E|---------------------------|

E|----------------------------|
B|----------------------------|
G|----------------------------|
D|--10-x------7-(Ring)--------|
A|-------7-x---------------10-|
E|----------------------------|

E|----------------------------|
B|----------------------------|
G|----------------------------|
D|--10-x-----7/9-(Ring)-------|
A|-------7-x---------------10-|
E|----------------------------|

E|----------------------------|
B|----------------------------|
G|----------------------------|
D|--10-x------10/12-(Ring)----|
A|-------7-x---------------10-|
E|----------------------------|

E|---------------------------|
B|---------------------------|
G|---------------------------|
D|--10-x-----7/9-(Ring)------|
A|-------7-x-----------------|
E|---------------------------|


Verse 1

Some will say
This place is wrong
These hands are fast
This face is long


CHORUS 1

C            G
Stop      upsetting  yourself

F            G
          Upsetting your

C            G
thoughts, Upsetting this world


F            G
 That you're standing

C
on


VERSE 2

These plans are torn
These feet are cold
This shield is worn
This peace was stolen

CHORUS 2

C            G
Stop      upsetting  yourself

F            G
          Upsetting your

C            G
thoughts, Upsetting this world


F            G
 That you're standing

F            G
on     These problems they breathe

C            C
  and their fire is real

F            G
         The coins that they keep

C            C
  You   Can  not steal

F            G
        Even when you're asleep

C            C
  They'll be  here still

F            G      Am
  Breathing  out or in

SOLO

(THis is definitely not entirely right, but it's a start)

Guitar 1
E|-----------------------------|
B|-----------------------------|
G|--5-4h5p4-2-4-2-0-4-5--------|
D|----------------------2-0-2--|
A|-----------------------------|
-------------------------------|

Guitar 2
E|-----------------------------|
B|-----------------------------|
G|-----------------------------|
D|-----------------------------|
A|--3-2h3p3-0-2-0---2-3--------|
E|----------------3-----0-3-0--|

Guitar 1
E|------------------------------|
B|------------------------------|
G|--5-4h5p4-2-4-2-0-4-----------|
D|------------------------------|
A|---------------------3b5------|-?
--------------------------------|-?

Guitar 2
E|-----------------------------|
B|-----------------------------|
G|-----------------------------|
D|-----------------------------|
A|--3-2h3p3-0-2-0---2-5b7------|  This bend is slow, and held.
E|----------------3------------|

VESRE 3

Some will say
this place is gone
These roads are steep
And much too long
These plans are cheap
My feet are cold
Cut the knot
These coins are golden

Some will say
this place is gone
These roads are steep
And much too long
These plans are cheap
My feet are cold
Cut the knot
These coins are golden


CHORUS 3

C            G
Stop      upsetting  yourself

F            G
          Upsetting your

C            G
thoughts, Upsetting this world


F            G
 That you're standing

F            G
on     These problems they breathe

C            C
  and their fire is real

F            G
         The coins that they keep

C            C
  You   Can  not steal

F            G
        Even when you're asleep

C            C
  They'll be  here still

F            G      C
  Breathing  out or in
Tap to rate this tab
 
# A B C D E F G H I J K L M N O P Q R S T U V W X Y Z