Song name
# A B C D E F G H I J K L M N O P Q R S T U V W X Y Z

Jack Johnson - My Little Girl tab

My Little Girl - Jack Johnson

Tabbed by: ryan (improved on chris' version)

Standard tuning

Intro & Chorus:
e|----3----7--  |--7----5----3----|x2
B|----3----8--  |--7----5----3----|
G|----4----9--  |--7----6----4----|
D|----5----9--  |--9----7----5----|
A|----5----7--  |--9----7----5----|
E|----3----x--  |--7----5----3----|


Verse is easiest if you play last two chords as bar chords like this:
7      5              
7      5               
7      6
7      7
9      7
7      5


Hey, little girl
Black and white and right and wrong
Only live inside a song
I will sing to you

You don't ever have to feel lonely
You will never lose any tears
You don't have to feel any sadness
When you look back on the years

How can I look you in the eyes,
And tell you such big lies?
The best I can do is try to show you
How to love with no fear
My little girl
You've gone and stole my heart
And made it your own
You've stole my heart
And made it your own

Solo: (Played over verse chords)

Got to get the harmony going here to get that smooth sound
(Played over chorus chords)

e|------------------------------ |--------------------|x2----|
B|------------------------------ |--------------------|  ----|
G|-----14--11-14--11----9--7--9- |-11--14---9--7--9---|  ----|
D|-9---------------------------- |-------------------9|  s12-|
A|-9---12--9--12--9-----7--5--7- |-9---12---7--5--7---|  ----|
E|------------------------------ |-------------------7|  s10-|

Improve it if can!

| /   slide up
| \   slide down
| h   hammer-on
| p   pull-off
| ~   vibrato
| +   harmonic
| x   Mute note
| b   Bend
| pb  Pre-bend
| br  Bend release
| pbr Pre-bend release
| brb Bend release bend
Tap to rate this tab
# A B C D E F G H I J K L M N O P Q R S T U V W X Y Z