Jack Johnson - Only The Ocean chords

Highlighted       Show chord diagrams
Artist: Jack Johnson
Song: Only The Ocean
Album: To The Sea (2010)
tabbed by: necriononguitar
e-mail (NO SPAM!): tim.rathgen@gmx.de

REAL FANS SUPPORT BANDS BY PURCHASING THEIR CD'S!!!


. = Palm-Muted
~ = hold note
^ = vibrate
p = pull off
h = hammer on
/ = slide up
\ = slide down


Tuning: Standard


Special Chords:
    F*   F**    F***  Bb*   Bb**  C*
E---------------------10----9-----8------------------|
B---10----10----10----11----11----5------------------|
G---10----9-----8-----10----10----5------------------|
D---10----10----10-----------------------------------|
A----------------------------------------------------|
E----------------------------------------------------|

F     Am     C     Bb
C     C      F     C


      F*                      F**
After all of this time, after all of these season
      F***                           Bb*
After your one decision to go to the water for reason
     Bb**               C*
itīs only the ocean and you

F*                   F**
all these lines will all be erased soon
        F***                   Bb*
They go out with the tide then come back with the waves soon
     Bb**               C*
Itīs only the ocean and you


          F                    Am
You donīt want       You donīt wait
          C                    Bb
You donīt love       But you donīt hate
         C         C
You just roll over me
                F       C
And you pull me in


+++++++Solo+++++++

F     Am     C     Bb
C     C      F     C


          F*                    F**
When this work is done and this coat is dry
          F***                     Bb*
When this world's too much it will be
Bb**               C*
Only the ocean and me

           F*                    F**
When these sails go up mountains fade away
F***                        Bb*
Stars come out, iīm finally free
     Bb**               C*
Itīs only the ocean and me


          F                    Am
You donīt want       You donīt wait
          C                    Bb
You donīt love       But you donīt hate
         C         C
You just roll over me
                F                  C
And you pull me in     you pull me in

          F                    Am
You donīt want       You donīt wait
          C                    Bb
You donīt love     Ohhhh you donīt hate
         C               C
You just roll right over me
                F       C
And you pull me in         ...and you pull me in


F       Am       C       Bb
         C         C
You just roll over me
                F
And you pull me in

Solo at ++++:
E-------------------------------------------------------------------------|
B-------------------------------------------------------------------------|
G----5~--(5)/10~------10b12r10-9~-----9b10r9-8~------8b9r8-7~-------------|
D-------------------------------------------------------------------------|
A-------------------------------------------------------------------------|
E-------------------------------------------------------------------------|

E------------------------------------(1/2=a half fret)-----------------|
B----------------------------------------------------------------------|
G---7~---(7)/9~-----9~--9b12~--r1/2~--10~---------10\5---5~------------|
D----------------------------------------------------------------------|
A----------------------------------------------------------------------|
E----------------------------------------------------------------------|


and that's it! I hope this helped, please rate, comment and correct me!

Cheers...
Tap to rate this tab
 
# A B C D E F G H I J K L M N O P Q R S T U V W X Y Z