Jack Johnson - Pictures Of People Taking Pictures tab

Song: Pictures of People Taking Pictures
Artist: Jack Johnson
Album: To the Sea
Tabbed by: SPENCER LARSEN

Chords used in song:
    D         A       Asus4       G        Em
e-2----0-----0-----3----0---l
B-3----2-----3-----3----0---l
G-2----2-----2-----0----0---l
D-0----2-----2-----0----2---l
A------0-----0-----2----2---l
E------------------3----0---l

INTRO: (Let strum ring for entire measure)
D
Pictures of people taking
D
Pictures of people taking		
D				  D
Pictures of people taking pictures
(repeat) x2

VERSE: (Strumming is ddduudd)
A                                     D
I pictured us at the end of time
A				      D
Holding up a camera to our eyes
A						       D
I took a picture of you took a picture of me
A					D
In the background of the picture was water running to the sea

***During the verses, there is a second guitar that plays the part below as guitar 
1 strums the melody***
e----------------------------------2---l
B----------------------------------3---l
G----------------------------------2---l
D---2---4---5---7---9---11-12-11---0---l
A---0---0---0---0---0---0---0--0-------l
E--------------------------------------l

CHORUS: (Strumming is ddduudd)
G                      A                                D            Em
So I pictured us standing there just just staying away from time
G                A                     D        Em
Watching it like a river as it slowly washes by
            A     Asus4   
Washes by!
A
And now
D
Pictures of people taking
D
Pictures of people taking
D						A
Pictures of people taking pictures
D
Pictures of people taking
D
Pictures of people taking
D						
Pictures of people taking pictures

VERSE: (Strumming is ddduudd)
        A					D
The feed back loop is closing in so tight
A					    D
Surrounding ourselves with satellites

***During the verses, there is a second guitar that plays the part below as guitar 
1 strums the melody***
e---------------------------------------2---l
B---------------------------------------3---l
G---------------------------------------2---l
D---2---4---5---7---9---11-12-11----0-------l
A---0---0---0---0---0---0---0--0------------l
E-------------------------------------------l

CHORUS: (Strumming is ddduudd)
G                         A			   D		Em
But I pictured us standing there just staying away from time
G		       A                      D       Em
Just watching it like a river as it slowly washes by
	    A	  Asus4
Washes by!
A
And now
D
Pictures of people taking
D
Pictures of people taking
D						A
Pictures of people taking pictures
(repeat) x4
D             		    G		    A			     D
I pictured us at the end of time taking pictures of nothing
Tap to rate this tab
 
# A B C D E F G H I J K L M N O P Q R S T U V W X Y Z